Song name
# A B C D E F G H I J K L M N O P Q R S T U V W X Y Z

Washya - Bothered tab

-----------------------------------------------------------------------------
                                  Bothered - Washya
-----------------------------------------------------------------------------
Tuning: Standard (EBGDAE) (Acoustic)
Intro
E|-----------------------------------------------------------------------|
B|-----------------------------------------------------------------------|
G|-----------------------------------------------------------------------|
D|---2-2h3p2-------2-----5-------5-----3h4---------3-2h3p2-------2-----2-|
A|-------------2h3---2h3-----1/3-----5---------3-------------2h3---2h3-2-|
E|-0---------0-------------3-------0-------3h5---0---------0-----------0-|

Verses
E|-------------------------------------------------------------------------|
B|-------5-----------5------------3-----------3-----------1----------1-----|
G|-----6---6-----6--------6-----4---4-----4-------4-----2---2----2-------2-|
D|---7-------7-----7----7-----5-------5-----5---5-----3-------3----3---3---|
A|-5-----------5------------3-----------3-----------1-----------1----------|
E|-------------------------------------------------------------------------|

Chorus
E|-000-0-00---------3---000-00-222-22---------2---222-2-------000-000-0-|
B|-555-3-33-3---------3-111-11-222-22-2---------2-333-3-3-----333-111-0-|
G|-666-4-44---4---------222-22-333-33---3---------222-2-----2-444-222-0-|
D|-777-5-55-------------333-33-444-44-------------000-0---0---555-333-2-|
A|-555-3-33-----3-3-----111-11-444-44-----4-4-----000-0-------555-333-2-|
E|-000-0-00-------0-----000-00-222-22-------0-----000-0-------000-000-0-|

Solo
E|-----------------------------------------1----------------------------|
B|---------------------------------3---------1--------------------------|
G|-/4-2-0-----/7-5h7p5---5p4-----------------------------3p2p1----------|
D|--------2h3----------7---------2-------3-----1h3p1---1-------/1h3p1---|
A|-----------------------------2-------3-------------3----------------3-|
E|---------------------------0-------1----------------------------------|

E|-------------------------------------------------------------|
B|-------------------------------------------------------------|
G|-----------------------------------7-------------------------|
D|-1h3p1---1h3p1---1h3p1---1h4p1-------7-7h8p7p5---5-----------|
A|-------3-------3-------3-------3/5-------------8---7p5p4-----|
E|---------------------------------------------------------6~~-|

Tuning: Standard (EBGDAE) (Acoustic)
Intro
E|-----------------------------------------------------------------------|
B|-----------------------------------------------------------------------|
G|-----------------------------------------------------------------------|
D|---2-2h3p2-------2-----5-------5-----3h4---------3-2h3p2-------2-----2-|
A|-------------2h3---2h3-----1/3-----5---------3-------------2h3---2h3-2-|
E|-0---------0-------------3-------0-------3h5---0---------0-----------0-|

Verses
E|-------------------------------------------------------------------------|
B|-------5-----------5------------3-----------3-----------1----------1-----|
G|-----6---6-----6--------6-----4---4-----4-------4-----2---2----2-------2-|
D|---7-------7-----7----7-----5-------5-----5---5-----3-------3----3---3---|
A|-5-----------5------------3-----------3-----------1-----------1----------|
E|-------------------------------------------------------------------------|

Chorus
E|-000-0-00---------3---000-00-222-22---------2---222-2-------000-000-0-|
B|-555-3-33-3---------3-111-11-222-22-2---------2-333-3-3-----333-111-0-|
G|-666-4-44---4---------222-22-333-33---3---------222-2-----2-444-222-0-|
D|-777-5-55-------------333-33-444-44-------------000-0---0---555-333-2-|
A|-555-3-33-----3-3-----111-11-444-44-----4-4-----000-0-------555-333-2-|
E|-000-0-00-------0-----000-00-222-22-------0-----000-0-------000-000-0-|
Tap to rate this tab
 
# A B C D E F G H I J K L M N O P Q R S T U V W X Y Z