Song name
# A B C D E F G H I J K L M N O P Q R S T U V W X Y Z

Washya - Holy Fire tab

-----------------------------------------------------------------------------
                         Holy Fire - Washya
-----------------------------------------------------------------------------
Tuning: Standard (EBGDAE)
Intro
E|-------------------------------------------| |-------------------------|
B|-------------------------------------------| |-------------------------|
G|-------------------------------------------| |-------------------------|
D|-----2-----------3-2-------0---------2---2-| |-------------------------|
A|---3---3-----1-2-----3---3---2---1/3---1-2-| |---4/5---5\4-4/5-4/5-5\4-|
E|-1-------1-3-----------1-------0---------0-| |-0-2/3-0-3\2-2/3-2/3-3\2-|
PM * * * * * * * * * * * * * * * * *** * *   x2  *     *                 x2


Verses
E|---------------------------------------------------------------|
B|---------------------------------------------------------------|
G|---------------------------------------------------------------|
D|------------------------10\9-------------------5---------------|
A|-5h7-----8p7----5h7-5h7-8-\7-5h7-----10p7----7-------5p4---5h7-|
E|-----000-----00------------------000------00-----000----00-----|
PM     ***     **                  ***      **     ***    **

E|--------------------------------------------------|
B|--------------------------------------------------|
G|-----5--------------------------------------------|
D|-------7------------------------------------------|
A|------------10p7-----5h7-8p7------4/5---5\4---4/5-|
E|-000-----00------000---------000-x2/3-x-3\2-x-2/3-|
PM ***     **      ***         *** 

Chorus
E|-----------------------------------------------------------------|
B|-----------------------------------------------------------------|
G|-----------------------------------------------------------------|
D|---------------------------------------7-6-5-------------------4-|
A|-7-6-5-------------5-4-3-------------2-------7-6-5-5-4-3-------4-|
E|-------7-6-5-5-4-3-------4-3-2-3-2-1-0-------------------5-4-3-2-|
PM * * * * * * * * * * * * * * * * * *   * * * * * * * * * * * * 

E|----------------------------------------------------------------------|
B|----------------------------------------------------------------------|
G|----------------------------------------------------------------------|
D|-7-6-5-6-5-4-----------------5--7-6-5-------6-5-4-------------------2-|
A|-------------5-4-3-------3-2-5--------7-6-5-------6-5-4-------------2-|
E|-------------------4-3-2-----3--------------------------7-6-5-5-4-3-0-|
PM * * * * * * * * * * * * * *    * * * * * * * * * * * * * * * * * * 

E|---------------------------------------------------|
B|---------------------------------------------------|
G|---------------------------------------------------|
D|-7-6-5-------5-4-3---------------------------------|
A|-------9-8-7-------6-5-4-------------------/7~~~\\-|
E|-------------------------7-6-5-6-5-4-5-4-3---------|
PM * * * * * * * * * * * * * * * * * * * * * 

Small acoustic lead 
E|------------10h13p12------14h15p14----14p12-10p8p7---------------------|
B|------10h12----------13~-----------15--------------9p8p7---------------|
G|-9h11----------------------------------------------------9-7-6---------|
D|---------------------------------------------------------------7-8-7-5-|
A|-----------------------------------------------------------------------|
E|-----------------------------------------------------------------------|

E|-------------------------------|
B|-------------------------------|
G|-------------------------------|
D|---5-7---5-4-------------------|
A|-7-----7-----6-5-4---4p3-------|
E|-------------------6-----4-3-2-|
Tap to rate this tab
 
# A B C D E F G H I J K L M N O P Q R S T U V W X Y Z