Song name
# A B C D E F G H I J K L M N O P Q R S T U V W X Y Z

Washya - Shoreline tab

-----------------------------------------------------------------------------
                        Shoreline - Washya
-----------------------------------------------------------------------------
Tuning: Standard (EBGDAE)
Intro/Verses
E|-----2--------------------0---0-|
B|-----3----------------------3---|
G|-----4--------------------------|
D|-4-5-4--4-7-2-----2---2---------|
A|-2-2-2--4-7-2---2-------2-------|
E|-0-----/2-5-0-0-----0-----------|

Chorus
E|---------------------------------3---------3-----3-----------------|
B|-----------------------------------3-------3-----3-----------------|
G|-----------------6-------------------2-----2-----2-----------------|
D|-7-4-----4---7-----7-7\6-2-----2-------------------4--/7-5-2---2---|
A|-7-4---4-------7-----7\6-2---2---------000---000---4--/7-5-2-----2-|
E|-5-2-2-----5---------5\4-0-0-----------------------2--/5-3-0-0-----|
PM                                       ***   ***                     

lead
E|---------------------------888\777----------------|
B|---9---9---9---8---8---8--/888\777-7---7---77~~\\-|
G|-7---7---7---7---7---7-----777\666---6---6--------|
D|--------------------------------------------------|
A|--------------------------------------------------|
E|--------------------------------------------------|
Tap to rate this tab
 
# A B C D E F G H I J K L M N O P Q R S T U V W X Y Z