Song name
# A B C D E F G H I J K L M N O P Q R S T U V W X Y Z

Washya - Feel The Love tab

-----------------------------------------------------------------------------
                     Feel The Love - Washya
-----------------------------------------------------------------------------
Tuning: Drop D (EBGDAD)
Intro/Verses
E|--------------------------------------------------------------------|
B|--------------------------------------------------------------------|
G|-----5-----5-----5------------------------------4-------4-------4---|
D|---4-----4-----4-----4-5p4----4-5p4---4-5p4-------4-------4-------4-|
A|-2-----2-----2-----2--------2-------2---------2-------2-------2-----|
D|--------------------------------------------2-------2-------2-------|

Chorus
E|-----------------------------------------------|
B|-----------------------------------------------|
G|-55-55-77-77-----------------------------------|
D|-44-44-66-66-44-44--4444\3333------------------|
A|-22-22-44-44-22-22-/2222\1111-2\111/222/333\\\-|
D|-------------22-22------------2\111/222/333\\\-|
Tap to rate this tab
# A B C D E F G H I J K L M N O P Q R S T U V W X Y Z