Song name
# A B C D E F G H I J K L M N O P Q R S T U V W X Y Z

Washya - Open Sea tab

-----------------------------------------------------------------------------
                               Open Sea - Washya
-----------------------------------------------------------------------------
Tuning: Standard (EBGDAE)
Intro
E|-------2-----------3-----------------------------------------------------|
B|-----3---3-------3---3---------2-----------2-----------------------------|
G|---2-------2---2-------2-----2---2-------2---2---------2-----------2-----|
D|-0-----------0-------------2-------2---2-------2-----3---3-------3---3---|
A|-------------------------0-----------0-------------3-------3---3-------3-|
E|-------------------------------------------------1-----------1-----------|

E|-------------------------------------------------------------7-|
B|-------4-----------4-----------------------------------9-----7-|
G|-----5---5-------5---5---------6-----------6-------------9---8-|
D|---5-------5---5-------5-----7---7-------7---7-------9-----9-9-|
A|-3-----------3-------------7-------7---7-------7---7---------9-|
E|-------------------------5-----------5-----------0-----------7-|

Verses
E|-------------------------------|
B|-------------------------------|
G|-------------------------------|
D|-2222-2-2-3\2-3\2--------------|
A|-2222-2-2-3\2-3\2-2222-4/5\4-2-|
E|------------------2222-4/5\4-0-|

Chorus
E|----------------------------------------------------|
B|----------------------------------------------------|
G|----------------------------------------------------|
D|--------------------2-----------------------8---5\\-|
A|-2222-4444-5555-3-2-0-8888-7777-10-10-10-10-6-8-3\\-|
E|-0000-2222-3333-1-0---6666-5555-8--8--8--8----6-----|
Tap to rate this tab
 
# A B C D E F G H I J K L M N O P Q R S T U V W X Y Z