Song name
# A B C D E F G H I J K L M N O P Q R S T U V W X Y Z

Washya - Robot Rock tab

-----------------------------------------------------------------------------
               Robot Rock (Daft Punk) - Washya
-----------------------------------------------------------------------------
Tuning: Standard (EBGDAE)
E|-----------| |--------------|
B|-----------| |--------------|
G|-----------| |--------------|
D|DRUM INTRO-| |-12-----12\10-|
A|-----------| |-12-----12\10-|
E|-----------| |-10-x7--10\8--|
              
Next (Synthesizer arranged for guitar)
E|--------------------------------------|
B|--------------------------------------|
G|----9--------------------9------------|
D|-12---10-7------12-12-12---10-7-------|
A|-12--------8-7--12-12-12--------8-7---|
E|-10-------------10-10-10------------8-|

"Rock, Robot Rock"
E|-----------|
B|-----------|
G|-----------|
D|-----------|
A|-5-5-3-----|
E|-------5-1-|
Tap to rate this tab
# A B C D E F G H I J K L M N O P Q R S T U V W X Y Z