Song name
# A B C D E F G H I J K L M N O P Q R S T U V W X Y Z

Washya - Devils Kiss tab

-----------------------------------------------------------------------------
                          Devil's Kiss - Washya
-----------------------------------------------------------------------------
Tuning: Drop D (DADGBE) (2 guitars)
Intro (Rhythm)
E|-----------------------------------------------|
B|-----------------------------------------------|
G|-----------------------------------------------|
D|-----------------------------------------------|
A|-----------------------------------------------|
D|-3333222666655599998881111111110101013131313\\-|
PM *******************************************

E|-------------------------------------|
B|-------------------------------------|
G|-------------------------------------|
D|-------------------------------------|
A|---------------------------------6\\-|
D|-666666665555555511111111/6666-666\\-|
PM ************************ **** ** 
 
(lead)
E|--------------------------------------------------------------|
B|--------------------------------------------------------------|
G|----------------------------------7-7h8p7---------------------|
D|------8-7-------5-----5-4h5-7-4h5---------9p7p6-----6---------|
A|-/9-7-----5-7h8---7h8---------------------------8h9---8h9-7\\-|
D|----------------------------------------------------------7\\-|

Verses (rhythm)
E|-------------------------------------------|
B|-------------------------------------------|
G|-------------------------------------------|
D|-------------------------------------------|
A|-00-0-00-00--00-0-00-00--0-00-00--0-00-000-|
D|-00-0-00-00--00-0-00-00--0-00-00--0-00-000-|
PM ** * ** **  ** * ** **  * ** **  * ** *** 

Heavy verse section played quick
E|---------------------------|
B|---------------------------|
G|---------------------------|
D|---------------------------|
A|--------0-3/5-0-3/5-123\\\-|
D|-//12\\-0-3/5-0-3/5-123\\\-|x14 

(lead)
E|--------------------------------------------------------------|
B|--------------------------------------------------------------|
G|----------------------------------7-7h8p7---------------------|
D|------8-7-------5-----5-4h5-7-4h5---------9p7p6-----6---------|
A|-/9-7-----5-7h8---7h8---------------------------8h9---8h9-7\\-|
D|----------------------------------------------------------7\\-|

Chorus
E|----------------------------------------|
B|----------------------------------------|
G|----------------2\\-----------------9\\-|
D|----------------2\\-444455557777117-9\\-|
A|-22223333555565-0\\-2222333355559-5-7\\-|
D|-22223333555565-------------------------|

(lead)
E|--------------------------------------------------------------|
B|--------------------------------------------------------------|
G|----------------------------------7-7h8p7---------------------|
D|------8-7-------5-----5-4h5-7-4h5---------9p7p6-----6---------|
A|-/9-7-----5-7h8---7h8---------------------------8h9---8h9-7\\-|
D|----------------------------------------------------------7\\-|

Just before solo
E|-----------------------------------7-6--------------|
B|---3---2---3---4---3---2---3-2-3-4-----4-7-6--------|
G|---------------------------------------------4~~~~--|
D|----------------------------------------------------|
A|----------------------------------------------------|
D|-0---0---0---0---0---0---0--------------------------|
PM *   *   *   *   *   *   * 

Solo
E|----------------------------------------------|
B|-----19---------19--------19----19------------|
G|-18b----18b-18b----18b-18----18----18\16b~~~~-|
D|----------------------------------------------|
A|----------------------------------------------|
D|----------------------------------------------|

E|-----19---------19-----------------------|
B|-18b----18b-18b----18b-17h18p17h18p17~~~-|
G|-----------------------------------------|
D|-----------------------------------------|
A|-----------------------------------------|
D|-----------------------------------------|

E|-/19-18-16-18-16-15-16-15-13-15-14-12-14-12------------------|
B|--------------------------------------------14-12-10-12-10-9-|
G|-------------------------------------------------------------|
D|-------------------------------------------------------------|
A|-------------------------------------------------------------|
D|-------------------------------------------------------------|

E|-----------------------------------------|
B|-9-10-9-7-9-7-6-7-6-4-3-4----------------|
G|--------------------------6-7-6-4-6-4~~~-|
D|-----------------------------------------|
A|-----------------------------------------|
D|-----------------------------------------|

E|---------------------------------------------------------------------|
B|---------------------------------------------------------------------|
G|-/14h15p14h15p14-10h12p10h12p10h12-7h9p7h9p7h9-5h6p5h6p5h6-3h4p3h4~~-|
D|---------------------------------------------------------------------|
A|---------------------------------------------------------------------|
D|---------------------------------------------------------------------|

E|-----20----20----20b~------------------------------------|
B|-18b----19----19------/22b-------------------------------|
G|----------------------------18b--/15b--------------------|
D|--------------------------------------15b----------------|
A|-------------------------------------------12b--/5b\/~~~-|< whammy bar
D|---------------------------------------------------------|

E|--------------------------------------------------------------------------|
B|--------------------------------------------------------------------------|
G|--------------------------------------------------------18h19h21p18h19h21-|
D|--------------------------------------18h20h21p18h20h21-------------------|
A|--------------------18h20h21p18h20h21-------------------------------------|
D|-/18h20h21p18h20h21-------------------------------------------------------|
PM  ******** 

E|-------------------------------------------21p10p18h21p20p18-|
B|-18h19h21p19p18h21p19p18-21p19p18h21p20p18-------------------|
G|-------------------------------------------------------------|
D|-------------------------------------------------------------|
A|-------------------------------------------------------------|
D|-------------------------------------------------------------|

E|-----18-----18----------------22----------22---------22-22B~~~~--------|
B|-----18-----18-------------22----------22---------22----22B~~~~--------|
G|-----18-----18-------21p19-------21p19------21p19---------------5/\~~~-|
D|-21b----21b------------------------------------------------------------|
A|-----------------------------------------------------------------------|
D|-----------------------------------------------------------------------|
Tap to rate this tab
 
# A B C D E F G H I J K L M N O P Q R S T U V W X Y Z