Song name
# A B C D E F G H I J K L M N O P Q R S T U V W X Y Z

Washya - Clear Sunrise tab

-----------------------------------------------------------------------------
                Clear Sunrise - Washya
-----------------------------------------------------------------------------
Tuning: Standard (EBGDAE)
E|-------------1----------3-------|
B|---------------1----------3-----|
G|-7-55-7-99-------2----------4---|
D|-7-55-7-99-3-------3--5-------5-|
A|-5-33-5-77-3----------5---------|
E|-----------1----------3---------|x2

Part 2 (Verses)
E|------------------------------------------|
B|------------------------------------------|
G|-5-5-555-5-4-4-444-4-2-2-222-2--7-777-7-7-|
D|-5-5-555-5-4-4-444-4-2-2-222-2--7-777-7-7-|
A|-3-3-333-3-2-2-222-2-0-0-000-0-/5-555-5-5-|
E|------------------------------------------|
PM * *   * *   *  **   * * **     *  ** * 

Chorus
E|------------------------------------------------------------------------|
B|------------------------------------------------------------------------|
G|----------------------------------------------------------4-7-----------|
D|-----------------------------5-555-5-7--------------------4-7---5-------|
A|-1-2-----2222222222-1-2------5-555-5-7---------2222222222-2-5-7---7-6-2-|
E|-----3-1-0000000000-----3/5--3-333-3-5-5-6-5-3-0000000000-------------0-|
PM         **********                    * * * * ********** 
Tap to rate this tab
 
# A B C D E F G H I J K L M N O P Q R S T U V W X Y Z