Song name
# A B C D E F G H I J K L M N O P Q R S T U V W X Y Z

Washya - Black Hole tab

-----------------------------------------------------------------------------
                   Black Hole - Washya
-----------------------------------------------------------------------------
Tuning: Standard (EBGDAE)
Intro
E|-------------------------------------------------------------------|
B|-------------------------------------------------------------------|
G|-------------------------------------------------------------------|
D|---------------------------------------------------0---------------|
A|-----------------1h2---------------------------2p1---2-----2-2-2-2-|
E|-0-0-0-0-0-0-0-0-----3-0-1-3-0-0-0-0-0-0-0-0-3---------3p2-0-0-0-0-|
PM * * * * * * * *             * * * * * * * *               * * * * 

E|-----|
B|-----|
G|-----|
D|-5-8-|
A|-5-8-|
E|-3-6-|

Verses
E|---------------| |---------------------|
B|---------------| |---------------------|
G|---------------| |---------------------|
D|---------------| |---------------------|
A|---------3/4/5-| |---------8-7-5/6-5-3-|
E|-0-3-1-0-1/2/3-| |-0-3-1-0-6-5-3/4-3-1-|
PM * * * *    x12 PM * * * *             x3

Chorus
E|-----------------------------------------------------------------|
B|-----------------------------------------------------------------|
G|-----------------------------------------------------------------|
D|-------------------------------------------8-7-8-------8-7-8-8\5-|
A|---------5-6-5~---5-6-5--------------5-4-5-6-5-6-5-4-5-6-5-6-8\5-|
E|-0-000-3--------3--------6-5-0-0-0-0-3-2-3-------3-2-3-------6\3-| 
Tap to rate this tab
 
# A B C D E F G H I J K L M N O P Q R S T U V W X Y Z