Song name
# A B C D E F G H I J K L M N O P Q R S T U V W X Y Z

Washya - I Dont Want Your Money Honey tab

-----------------------------------------------------------------------------
             I Don't Want Your Money Honey - Washya
-----------------------------------------------------------------------------
Tuning: Standard (EBGDAE)
Intro
E|----------------------------------------------------------|
B|----------------------------------------------------------|
G|-22---22-2-----22---------------------------------3-----2-|
D|-22-5-22---2-5-22-5-5---555555/888888-2-----2-----3-----2-|
A|-00-5-00-----5-00-5---5-555555/888888-2---2-------------0-|
E|----3--------3----3-----333333/666666-0-0-----3h5---3h5---|
PM                                              ***   *** 

Verses
E|------------------------|
B|------------------------|
G|-2222-----------------2-|
D|-2222-------3p2p0-----2-|
A|-0000-------------2p0-0-|
E|------0h3h5-------------|
PM      ***** 

Chorus
E|-/88888----8---------8888-888-------------------------------|
B|-/88888----8---------8888-888-------------------------------|
G|--------10---10-8---------777-/10---8888--------------------|
D|------------------10--------------8-7777-7-7-5-5----------2-|
A|-----------------------------------------7-7-5-4-/7-5-4---2-|
E|-----------------------------------------5-5-3-3--------5-0-|
Tap to rate this tab
# A B C D E F G H I J K L M N O P Q R S T U V W X Y Z