Song name
# A B C D E F G H I J K L M N O P Q R S T U V W X Y Z

Washya - Seduction tab

-----------------------------------------------------------------------------
                                Seduction - Washya
-----------------------------------------------------------------------------
Tuning: Drop C (DAFCGC)
Intro
D|-----------------------------|
A|-----------------------------|
F|-----------------------------|
C|-----------------------------|
G|-12\\-00-00-1/3-00-0-000-1/3-|
C|-12\\-00-00-1/3-00-0-000-1/3-|x3 

Verses
D|----------------------------------------------------------------|
A|----------------------------------------------------------------|
F|----------------------------------------------------------------|
C|----------------------------------------------------------------|
G|-55555555-22222222-44444444-11111111-55555555-22222222-3333-3\\-|
C|-55555555-22222222-44444444-11111111-55555555-22222222-3333-3\\-|
PM ******** ******** ******** ******** ******** ******** **** 

Chorus
D|-----------------------------------------------------------------|
A|-----------------------------------------------------------------|
F|------------------------77777777-55555555------------------------|
C|------------------------77777777-55555555------------------------|
G|-12\\-55555555/88888888-55555555-33333333-00-0-6-5-1/3-0-6-5-1/3-|
C|-12\\-55555555/88888888-------------------00-0-6-5-1/3-0-6-5-1/3-|


Lead
D|--------------------------------------------12-------13----10-------15~\-|
A|-----------------------------------------------12-10----12----13-12------|
F|---4---4/6p4-----8~------8------8------11p9------------------------------|
C|-5---5-------5h6----9-11---9-11---9-11-----------------------------------|
G|-------------------------------------------------------------------------|
C|-------------------------------------------------------------------------|
Tap to rate this tab
# A B C D E F G H I J K L M N O P Q R S T U V W X Y Z