Song name
# A B C D E F G H I J K L M N O P Q R S T U V W X Y Z

Washya - Controlling The Universe tab

-----------------------------------------------------------------------------
                     Controlling The Universe - Washya
-----------------------------------------------------------------------------
Tuning: Drop D (EBGDAD)
Intro
E|-----------------------------------------|
B|-----------------------------------------|
G|-----------------------------------------|
D|-----------------------------------------|
A|------6------6\5---1------6------5-1-3\\-|
D|-0000-6-0000-6\5-0-1-0000-6-0000-5-1-3\\-|
PM ****   ****     *   ****   **** 

Verses
E|---------------------------------------------------|
B|---------------------------------------------------|
G|---------------------------------------------------|
D|------------------------2----------------7\6-----2-|
A|------5-----6---3---------3------3/5-8/7-5\4-2h4-0-|
D|-0000---000---0---0-3h5-----5/6--3/5-8/7-----2h4---|
PM ****   ***   *   *  

Chorus
E|--------------------------------------------------------------------------|
B|--------------------------------------------------------------------------|
G|--------------------------------------------------------------------------|
D|--------------------------------------------------------------------------|
A|------35-35-35-35------35-35------6------3------6-5------35-35-35-35------|
D|-0000-35-35-35-35-0000-35-35-0000-6-0000-3-0000-6-5-0000-35-35-35-35-0000-|
PM ****             ****       ****   ****   ****     ****             **** 

E|-------------------|
B|-------------------|
G|-------------------|
D|-------------------|
A|-35-35----1~//12\\-|
D|-35-35-00-1~//12\\-|
Tap to rate this tab
# A B C D E F G H I J K L M N O P Q R S T U V W X Y Z