Song name
# A B C D E F G H I J K L M N O P Q R S T U V W X Y Z

Washya - Cold Flame tab

-----------------------------------------------------------------------------
                           Cold Flame - Washya
-----------------------------------------------------------------------------
Tuning: Drop D (EBGDAD)
Intro
E|-------10-9----------10-9----------10-9----------8-7---------8-7---|
B|---7--------10---7--------10---7--------10---5-------8---5-------8-|
G|-7---7---------7---7---------7---7---------5---5-------5---5-------|
D|-------------------------------------------------------------------|
A|-------------------------------------------------------------------|
D|-------------------------------------------------------------------|

E|-------8-7---10-10-10-10-10-10-9-8-8-8-8-8-8-7-|
B|---5-------8-7--7--7--7--7--7--7-5-5-5-5-5-5-5-|
G|-5---5-------7--7--7--7--7--7--7-5-5-5-5-5-5-5-|
D|-----------------------------------------------|
A|-----------------------------------------------|
D|-----------------------------------------------|x3

Verses
E|------------------------------------------------------------|
B|------------------------------------------------------------|
G|------------------------------------------------------------|
D|------------------------------------------------------------|
A|-12-12-12-10-12-12-12-10-12-12-12-10-10h12-12-12\8h10-5-----|
D|-0--0--0--0--0--0--0--0--0--0--0--0--0--0--0------------7b~-|
PM *  *  *  *  *  *  *  *  *  *  *  *  *  *  * 

Chorus
E|-------------------------------------------------------------------------|
B|-------------------------------------------------------------------------|
G|-------------------------------------------------------------------------|
D|-------------------------------------------------------------------------|
A|-12\\-0-10-12-0-12-10-8-10-0-5/8-0-10\8/10-0-5/8-0-5/8-0-333-5-0-8-7-0-1-|
D|-12\\-0-10-12-0-12-10-8-10-0-5/8-0-10\8/10-0-5/8-0-5/8-0-333-5-0-8-7-0-1-|
Tap to rate this tab
# A B C D E F G H I J K L M N O P Q R S T U V W X Y Z