Song name
# A B C D E F G H I J K L M N O P Q R S T U V W X Y Z

Washya - Wasted Slaves tab

-----------------------------------------------------------------------------
                              Wasted Slaves - Washya
-----------------------------------------------------------------------------
Tuning: D Standard (DAFCGD)
Intro
D|----------------|   |------------------|
A|----------------|   |------------------|
F|----------------|   |-------------10\\-|
C|----------------|   |-5---6---7---10\\-|
G|------------6\5-|   |-3-5-4-6-5-7-8\\--|
D|-//x\\66666-4\3-|x4 |---3---4---5------|
PM      ***** 

Verses
D|------------------------------------------|
A|------------------------------------------|
F|------------------------------------------|
C|------------------------------------------|
G|------------------------------------------|
D|-111-1-1--11-1-1-111-11-1-111-111-111-1-1-|
PM *** * *  ** * * *** ** * *** *** *** * *

D|-----------------------------------------|
A|-----------------------------------------|
F|-----------------------------------------|
C|-----------------------------------------|
G|-----------------------------------------|
D|-444-44--44-4-4-444-44-4-444-444-444-4-4-|
PM *** **  ** * * *** ** * *** *** *** * * 
D|-----------------------------------------|
A|-----------------------------------------|
F|-----------------------------------------|
C|-----------------------------------------|
G|-222-22--22-2-2-222-22-2-222-222-222-2-2-|
D|-----------------------------------------|
PM *** **  ** * * *** ** * *** *** *** * * 

D|---------------------------------------------------------------------|
A|---------------------------------------------------------------------|
F|---------------------------------------------------------------------|
C|---------------------------------------------------------------------|
G|-333-33--33-3-3-333-33-3-333-333-333-3-3-----------------------------|
D|-----------------------------------------444-44-4-4-444-44-4-444-4-4-|
PM *** **  ** * * *** ** * *** *** *** * * *** ** * * *** ** * *** * * 


Chorus
D|-------------------------------------------|
A|-------------------------------------------|
F|-------------------------------------------|
C|-----------------8\7-------------5\4-------|
G|----6\5-10\9-5/7-6\5-4/5-8/9-7\6-3\2-3/4/5-|
D|-00-4\3-8-\7-3/5-----2/3-6/7-5\4-----1/2/3-|
Tap to rate this tab
 
# A B C D E F G H I J K L M N O P Q R S T U V W X Y Z