Song name
# A B C D E F G H I J K L M N O P Q R S T U V W X Y Z

Washya - War Monger tab

-----------------------------------------------------------------------------
                         War Monger - Washya
-----------------------------------------------------------------------------
Tuning: Standard (EBGDAE)
Intro
E|-----------------------------------|
B|-----------------------------------|
G|----------5/6-6/8-8/9-9/10-10/12\\-|
D|-2222-4/5-5/6-6/8-8/9-9/10-10/12\\-|
A|-2222-4/5-3/4-4/6-6/7-7/8--8-/10\\-|
E|-0000-2/3--------------------------|x 4
PM ****  

Verses 
E|---------------------------------------------------|
B|---------------------------------------------------|
G|---------------------------------------------------|
D|-------5555-55-5-55-55-5---------7777-77-7-77-77-7-|
A|-5p3p0-5555-55-5-55-55-5-5h8p7p5-7777-77-7-77-77-7-|
E|-------3333-33-3-33-33-3---------5555-55-5-55-55-5-|
PM *****    * **   **      *******   **    *       *

E|-------------------------|
B|-------------------------|
G|-------------------------|
D|-------2222-22-2-22-22-2-|
A|-3p2p0-2222-22-2-22-22-2-|
E|-------0000-00-0-00-00-0-|
PM *****   **    *       * 

Chorus
E|-------------------------------------------------|
B|-------------------------------------------------|
G|-------------------------------------------------|
D|----5---7---8---7---8---5---7---10\9---7---345\\-|
A|----5---7---8---7---8---5---7---10\9---7---345\\-|
E|-00-3-0-5-0-6-0-5-0-6-0-3-0-5-0-8-\7-0-5-0-123\\-|
PM **   *   *   *   *   *   *   *      *   * 
Tap to rate this tab
# A B C D E F G H I J K L M N O P Q R S T U V W X Y Z