Song name
# A B C D E F G H I J K L M N O P Q R S T U V W X Y Z

Washya - Surrender Too Me tab

-------------------------------------------------------------------------------
                       Surrender Too Me - Washya
-------------------------------------------------------------------------------
Tuning: Drop B (BF#BEG#C#)
Intro
B|----------------------------------|
F#|---------------------------------|
B|----------5\4---5/4---------------|
E|----------5\4---5/4---------------|
G#|-/12\-00-3\2-0-3/2-0-0-0-0-5p4p2-|
C#|-/12\-00-----0-----0-0-0-0-------|x3

Part 2
B|--------------------------|
F#|-------------------------|
B|---------5----------3-----|
E|---------5----------3-----|
G#|-00-3-0-3--00-3-0--1-3h6-|
C#|-00-3-0----00-3-0----3h6-|

Chorus
B|-----------------------------------| |-------------------|
F#|----------------------------------| |-------------------|
B|-----------------------------------| |-55555555/88888888-|
E|-----------------------------------| |-55555555/88888888-|
G#|-00-3-00-3-0-0000-5-5-555-2-0-2-3-| |-33333333/66666666-|
C#|-00-3-00-3-0-0000-5-5-555-2-0-2-3-| |-------------------|
Tap to rate this tab
# A B C D E F G H I J K L M N O P Q R S T U V W X Y Z