Song name
# A B C D E F G H I J K L M N O P Q R S T U V W X Y Z

Washya - Social Silence tab

-----------------------------------------------------------------------------
                                Social Silence - Washya
-----------------------------------------------------------------------------
Tuning: Drop B (BF#BEG#C#)
Intro
B|------------------------------------|
F#|-----------------------------------|
B|------------------------------------|
E|------------------------------------|
G#|--------5b*--------------7b*-------|
C#|-00-000-----0h3p0-00-000-----0h3p0-|x3

Part 2
B|----------------------------------------|
F#|---------------------------------------|
B|----------------------------------------|
E|-----------3333---------------5555------|
G#|-55556666------1111/55556666------3333-|
C#|----------------------------------3333-|x3
PM  ******** **** **** ******** **** **** 

Verses
B|-------------|   |---------------|
F#|------------|   |---------------|
B|-------------|   |---------------|
E|--------7/10-|   |---------------|
G#|-5-5/6-5/8--|   |-5-6-8-3-5-6-1-|
C#|-5-5/6------|x3 |-5-6-8-3-5-6-1-|
                  PM * *   * * * 

Chorus
B|-----------------------------------------------------------|
F#|----------------------------------------------------------|
B|-----------------------------------------------------------|
E|--------------------55555555-88888888-----------555--------|
G#|-55555555-11111111-33333333-66666666-66-666666-333-3333/6-|
C#|-55555555-11111111-------------------66-666666-----3333/6-|
PM                                         ******

Solo
B|-----------------------------------------------------------------16---17~-|
F#|-------------------------------------------------------12-13-15---15-----|
B|------------------------------------------------9-11-13-------------------|
E|--------------------7-8-10--------7-8-10-7-8-10---------------------------|
G#|-------5-7-8-5-7-8--------7-8-10-----------------------------------------|
C#|-5-7-8-------------------------------------------------------------------|
PM  * * * * * * 

B|--17-15-14----14h17p14h17p14-------------16-------16--------15-------17~-|
F#|----------15----------------15h17p15p14----17p14----17p14-----14p12-----|
B|-------------------------------------------------------------------------|
E|-------------------------------------------------------------------------|
G#|------------------------------------------------------------------------|
C#|------------------------------------------------------------------------|

Verses
B|-------------|   |---------------|
F#|------------|   |---------------|
B|-------------|   |---------------|
E|--------7/10-|   |---------------|
G#|-5-5/6-5/8--|   |-5-6-8-3-5-6-1-|
C#|-5-5/6------|x3 |-5-6-8-3-5-6-1-|
                  PM * *   * * * 

Chorus
B|-----------------------------------------------------------|
F#|----------------------------------------------------------|
B|-----------------------------------------------------------|
E|--------------------55555555-88888888-----------555--------|
G#|-55555555-11111111-33333333-66666666-66-666666-333-3333/6-|
C#|-55555555-11111111-------------------66-666666-----3333/6-|
PM                                         ******
Tap to rate this tab
 
# A B C D E F G H I J K L M N O P Q R S T U V W X Y Z