Song name
# A B C D E F G H I J K L M N O P Q R S T U V W X Y Z

Washya - Vile Blood tab

-----------------------------------------------------------------------------
                              Vile Blood - Washya
-----------------------------------------------------------------------------
Tuning: Drop D (DADGBE)
Intro
E|-------------------------------------------------------------|
B|-------------------------------------------------------------|
G|-------5--------------7777-7h8p7-----------------888---888---|
D|-5h7-5---7-5-7--5h7p5-7777-------10p8p6h8--6h8p6-888-0-888-0-|
A|----------------------5555-----------------------666-0-666-0-|
D|-----------------------------------------------------0-----0-|x4
PM *** * * * * *  *****      ***** ********  *****     *     *  

Chorus
E|----------------------------------------------------------------------|
B|----------------------------------------------------------------------|
G|----------------------------------------3333-------------2------------|
D|--------------------0h1p0-------3-0h1p0-3333-0h1p0-------2-0h1p0-0000-|
A|--------------------------3p0---3-------1111-------3p2p0-0-------0000-|
D|-//xx\\pickscrape\\-----------3-3--------------------------------0000-|

Verses
E|-------------|
B|-------------|
G|-------------|
D|-00-0-00-000-|
A|-00-0-00-000-|
D|-00-0-00-000-|

Interlude
E|----------------------------------------------------------|
B|----------------------------------------------------------|
G|-555\3--555\3--55---55---555\3--555\3/999\8-999\8-999-----|
D|-555\3--555\3--55-0-55-0-555\3--555\3/999\8-999\8-999-8\\-|
A|-333\1--333\1--33-0-33-0-333\1--333\1/777\6-777\6-777-8\\-|
D|------------------0----0------------------------------8\\-|
PM                  *    *  

       Verses
E|-------------|
B|-------------|
G|-------------|
D|-00-0-00-000-|
A|-00-0-00-000-|
D|-00-0-00-000-|

 Intro
E|-------------------------------------------------------------|
B|-------------------------------------------------------------|
G|-------5--------------7777-7h8p7-----------------888---888---|
D|-5h7-5---7-5-7--5h7p5-7777-------10p8p6h8--6h8p6-888-0-888-0-|
A|----------------------5555-----------------------666-0-666-0-|
D|-----------------------------------------------------0-----0-|x4
PM *** * * * * *  *****      ***** ********  *****     *     *  

 Chorus
E|----------------------------------------------------------------------|
B|----------------------------------------------------------------------|
G|----------------------------------------3333-------------2------------|
D|--------------------0h1p0-------3-0h1p0-3333-0h1p0-------2-0h1p0-0000-|
A|--------------------------3p0---3-------1111-------3p2p0-0-------0000-|
D|-//xx\\pickscrape\\-----------3-3--------------------------------0000-|
         
Tap to rate this tab
# A B C D E F G H I J K L M N O P Q R S T U V W X Y Z