Song name
# A B C D E F G H I J K L M N O P Q R S T U V W X Y Z

Washya - Tie The Rope Around Your Neck tab

-------------------------------------------------------------------------------
                       Tie The Rope Around Your Neck - Washya
-------------------------------------------------------------------------------
Tuning: D Standard (DAFCGD)
Intro
D|--------------|   |----------------------|   |--------------|
A|--------------|   |----------------------|   |--------------|
F|-7777-777-7\\-|   |-10101010-101010-10\\-|   |--------------|
C|-7777-777-7\\-|   |-10101010-101010-10\\-|   |-5555-555-8\\-|
G|-5555-555-5\\-|   |-8-8-8-8--8-8-8--8-\\-|   |-5555-555-8\\-|
D|--------------|x3 |----------------------|x3 |-3333-333-6\\-|x1

Verses
D|-----------------------------------------------------------|
A|-----------------------------------------------------------|
F|-----7-----77--777--------5----5-5-55-------3-----3-33-3---|
C|-----7-----77--777--------5----5-5-55-------3-----3-33-3-2-|
G|-555-5-5-5-55-5555\333-3-33-33-3-3-33\111-1-1-111-1-11-1-2-|
D|-555-5-5-5-55-5555\333-3-33-33-3-3-33\111-1-1-111-1-11-1-0-| 
PM ***   * *    *    *** * *  **        *** *   ***        

Chorus
D|----------------------------------------------------------------------|
A|----------------------------------------------------------------------|
F|---------------------------------10101010101010101010\8888888888------|
C|-7777777777/10101010101010101010-10101010101010101010\8888888888-88\\-|
G|-7777777777/10101010101010101010-8-8-8-8-8-8-8-8-8-8-\6666666666-88\\-|
C|-5555555555/8-8-8-8-8-8-8-8-8-8----------------------------------66\\-|
Tap to rate this tab
# A B C D E F G H I J K L M N O P Q R S T U V W X Y Z