Song name
# A B C D E F G H I J K L M N O P Q R S T U V W X Y Z

Washya - Loan Wolf tab

-----------------------------------------------------------------------------
                                    Loan Wolf - Washya
-----------------------------------------------------------------------------
Tuning: Drop D (EBGDAD)
Intro
E|-------------------------------------------------|
B|-------------------------------------------------|
G|-------10--------10-10------------7-------7-7----|
D|----------10-------------10---------7----------7-|
A|---8-----------8-------8------5---------5----5---|
D|-8---8-------8--------------5---5-----5----------|
PM * * *       * *       *    * * *     * *    *   

Verses
E|------------------------------------------------------------------|
B|------------------------------------------------------------------|
G|------------------------------------------------------------------|
D|---------------5----2-------------5----3----7\\----2--------------|
A|-12\------4--------------5---4-------------------------5---2-22h3-|
D|-12\-2222---22---22---22---2---22---22---22-----22---2---2---22h3-|
PM     ****   **   **   **   *   **   **   **     **   *   * 

Chorus (Distortion on)
E|-----------------------------------|
B|-----------------------------------|
G|-----------------------------------|
D|-----------------------------------|
A|-12\\3-5-6-5-6-8-6-0-3-5-6-1-2-3\\-|
D|-12\\3-5-6-5-6-8-6-0-3-5-6-1-2-3\\-|
Tap to rate this tab
# A B C D E F G H I J K L M N O P Q R S T U V W X Y Z