Song name
# A B C D E F G H I J K L M N O P Q R S T U V W X Y Z

Washya - A Perfect Ocean tab

-------------------------------------------------------------------------------
                           A Perfect Ocean - Washya
-------------------------------------------------------------------------------
Tuning: (EBGDAD)
Intro
E|-------------------------------------------|
B|-------------------------------------------|
G|-------------------------------------------|
D|-------------------------------------------|
A|-2-22-22-2-222-4-44-44-4-444-0-00-00-0-000-|
D|-2-22-22-2-222-4-44-44-4-444-0-00-00-0-000-|x3
PM * ** ** * *** * ** ** * *** * ** ** * *** 

Verses
E|-------------------------------------------------|
B|-------------------------------------------------|
G|-------------------------------------------------|
D|-------------------------------------------------|
A|-2-22-22-22-2222-4-24-24-22-2222-0-00-00-00-1111-|
D|-2-22-22-22-2222-4-24-24-22-2222-0-00-00-00-1111-|
PM * ** ** ** **** * ** ** ** **** * ** ** ** **** 

Chorus
E|----------------------------------------------------------------------|
B|----------------------------------------------------------------------|
G|----------------------------------------------------------------------|
D|----------------------------66666666/88888888-------------------------|
A|-22222222/44444444-00000000-44444444/66666666-66666666\333/444-00-000-|
D|-22222222/44444444-00000000-------------------66666666\333/444-00-000-|

E|-----------------------------------------------|
B|-----------------------------------------------|
G|-----------------------------------------------|
D|----------55555555\33333333--------------------|
A|-55555555-33333333\11111111-33333333-33-33h5\\-|
D|-55555555-------------------33333333-33-33h5\\-|

Lead
E|--------------------------------------------------------------10-------|
B|---------8------------8-----------7h8h10p8p7---7h10-------7h8----8p7h8-|
G|-----7-9---9-7----7-9---9-8-7---8------------8------9p8p7--------------|
D|--8b-----------8b-------------9----------------------------------------|
A|-----------------------------------------------------------------------|
D|-----------------------------------------------------------------------|

E|-----10-------10---10h13p10h12p10---10h13p10h12p10---8b-/10b/12b~-|
B|-7h8----8p7h8----8----------------8----------------8-10b/12b/14b~-|
G|------------------------------------------------------------------|
D|------------------------------------------------------------------|
A|------------------------------------------------------------------|
D|------------------------------------------------------------------|
Tap to rate this tab
 
# A B C D E F G H I J K L M N O P Q R S T U V W X Y Z