Song name
# A B C D E F G H I J K L M N O P Q R S T U V W X Y Z

Washya - Flawed Reasoning tab

-------------------------------------------------------------------------------
                         Flawed Reasoning - Washya
-------------------------------------------------------------------------------
Tuning: Drop D (DADGBE)
Intro (lost of distortion) 
E|----------------|   |--------------12b~-|
B|----------------|   |--------------12b~-|
G|-4444-----223-4-|   |-7b-/9b--/12b------|
D|-4444-2h4-222-4-|   |-9b-/11b-/14b------|
A|-2222-2h4-000-2-|   |-------------------|
D|------2h4-------|x5 |-------------------|

Verses
E|----------------|
B|----------------|
G|-44444-444-4----|
D|-44444-444-4-44-|
A|-22222-222-2-44-|
D|-------------44-|

Chorus
E|------------------------------5-------------|
B|--------------------------------5-----------|
G|-2h444---------8888-888-6\4h6-----4h666-----|
D|-2h444-44-4-66-8888-888-6\4h6-----4h666-x-4-|
A|-2h222-44-4-66-6666-666-6\4-4-----4-444-x-4-|
D|-------44-4-66--------------------------x-4-|

Lead
E|-------------------------------------|
B|----13----13-12h14p12----12----------|
G|-12----12-------------14----/10-10b~-|
D|-------------------------------------|
A|-------------------------------------|
D|-------------------------------------|x2
Tap to rate this tab
# A B C D E F G H I J K L M N O P Q R S T U V W X Y Z