Song name
# A B C D E F G H I J K L M N O P Q R S T U V W X Y Z

Washya - Marni Marni Martini tab

-------------------------------------------------------------------------------
                        Marni Marni Martini - Washya
-------------------------------------------------------------------------------
Tuning: Drop D (EBGDAD)
Intro
E|--------------------|
B|--------------------|
G|--------------------|
D|---------------10\9-|
A|-5555-3333-555-8-\7-|
D|-5555-3333-555------|x4

Verses
E|-----------------|     |---------------------|
B|-----------------|     |---------------------|
G|-----------------|     |-----------------9\\-|
D|-----------------|     |-----------------9\\-|
A|-66663333555/8\6-|     |-0-3-5-6-5-3-0-1-7\\-|
D|-66663333555/8\6-|x14  |-0-3-5-6-5-3-0-1-----|
PM ***********             * * * * * * * * 

Chorus
E|-----------------------------------------------------------------------|
B|-----------------------------------------------------------------------|
G|-----------------------------------------------------------------------|
D|------------------------------------99-9-99-9-99-9-99-9\55-5-55-5-55-5-|
A|-55-5-55-5-55-5/88-8-88-8-88-8-88-8-77-7-77-7-77-7-77-7\33-3-33-3-33-3-|
D|-55-5-55-5-55-5/88-8-88-8-88-8-88-8------------------------------------|

E|-----------------------------------|
B|-----------------------------------|
G|-----------------------------------|
D|-----------------------------------|
A|-1-11-33-3-33-3-33-3-33-3-0-00-000-|
D|-1-11-33-3-33-3-33-3-33-3-0-00-000-|

Solo
E|---------------------------------------------------------------------10~-|
B|--------------------------------------------------------8p7----8p7h8-----|
G|---------------------------------------------7---7h8h10-----10-----------|
D|-------------------------------7-5---7-5-7-8---8-------------------------|
A|-----3-5-3---5-3-5-3-5/7-5-7h8-----7-------------------------------------|
D|-3-6-------6-------------------------------------------------------------|
PM * * * * * * * * * 

E|-10h12p10h12p10h13p10h13p10h13p10h13p12p10h13p12p10-------------------|
B|----------------------------------------------------13p12p10----13p12-|
G|-------------------------------------------------------------12-------|
D|----------------------------------------------------------------------|
A|----------------------------------------------------------------------|
D|----------------------------------------------------------------------|

E|-10----10----10----12p10h13p10h12-----10h12-----10h12-----17--17--17--|
B|----13----12----13----------------14b-------14b-------14b-15b-15b-15b-|
G|----------------------------------------------------------------------|
D|----------------------------------------------------------------------|
A|----------------------------------------------------------------------|
D|----------------------------------------------------------------------|
Tap to rate this tab
# A B C D E F G H I J K L M N O P Q R S T U V W X Y Z