Song name
# A B C D E F G H I J K L M N O P Q R S T U V W X Y Z

Washya - Static Coma tab

-----------------------------------------------------------------------------
                                  Static Coma - Washya
-----------------------------------------------------------------------------
Tuning: Drop C (DAFCGC)
Intro
D|------------------------------------|
A|------------------------------------|
F|------------------------------------|
C|------------------------------------|
G|-xx-xx-x-xxx-xx-xx-xx-xxxx-xx-xx-xx-|
C|-xx-xx-x-xxx-xx-xx-xx-xxxx-xx-xx-xx-|x15 

Part 2
D|------------------------------------------|
A|------------------------------------------|
F|------------------------------------------|
C|-6---6---6---6---6----2---2---2---2---2---|
G|-6-5-6-5-6-5-6-5-6-5\-2-3-2-3-2-3-2-3-2-3-|
C|---5---5---5---5---5\---3---3---3---3---3-|x2

Verses
D|-----------------------------------------------------------|
A|-----------------------------------------------------------|
F|-7b\6b----------------7b\4b----------------7b/1010101010\--|
C|-----------------------------------------------------------|
G|-5b\4b----------------5b\2b----------------5b/8-8-8-8-8\88-|
C|-------0-000000-0-000-------0-000000-0-000--------------88-|
PM       * ****** * ***       * ****** * *** 

Chorus
D|------------------------------------------------------------------------|
A|------------------------------------------------------------------------|
F|------------------------------------------------------------------------|
C|-4-3-1--------6\3/5-6\3/5-8-7-5--------10\9/10-10\9/10-------------10\\-|
G|-4-3-1--------4\1/3-4\1/3-8-7-5--------8-\7/8--8-\7/8--------------10\\-|
C|-4-3-1-1-11-1-------------8-7-5-5-55-5-----------------888-88-88-8h10\\-|
PM       * ** *                   * ** *                 *** ** ** * 
Tap to rate this tab
 
# A B C D E F G H I J K L M N O P Q R S T U V W X Y Z