Song name
# A B C D E F G H I J K L M N O P Q R S T U V W X Y Z

Washya - Rations tab

-----------------------------------------------------------------------------
                           Rations - Washya
-----------------------------------------------------------------------------
Tuning: Drop D (EBGDAD)
Intro/Verses
E|-----------------------|    |-----------------------|
B|-----------------------|    |-----------------------|
G|-----------------------|    |-----------------------|
D|-----------3-3p2p0-----|    |-----------------------|
A|---3---2-----------3p2-|    |---3---2---6-5-3-5-3-0-|
D|-0---0---0-------------|x15 |-0---0---0-6-5-3-5-3-0-|
                                (Ending)

Chorus
E|-------------------------------------------|
B|-------------------------------------------|
G|-------------------------------------------|
D|-------------------------------------------|
A|-66666666/99999999\8888888-3-5-3-6-5-3-5-0-|
D|-66666666/99999999\8888888-3-5-3-6-5-3-5-0-|

interlude (Distortion)
E|---------------------------------------------------------------------|
B|---------------------------------------------------------------------|
G|---------------------------------------------------------------------|
D|-5/77\55-1010-8-7----------------10-9-7-9-10-99-7-5------------------|
A|-3/55\33-8-8--6-5-3-55-33-66-5-0-8--7-5-7-8--77-5-3-3-5-3-5-3-55-3-0-|
D|------------------3-55-33-66-5-0--------------------3-5-3-5-3-55-3-0-|
Tap to rate this tab
 
# A B C D E F G H I J K L M N O P Q R S T U V W X Y Z