Song name
# A B C D E F G H I J K L M N O P Q R S T U V W X Y Z

Washya - Sweet Sensation tab

-------------------------------------------------------------------------------
                             Sweet Sensation - Washya
-------------------------------------------------------------------------------
Tuning: Standard 
Intro
E|------------------|   |-0-|
B|-3-3----3-3-------|   |-3-|
G|------2---------2-|   |-2-|
D|----2-------2-2---|   |-0-|
A|------------------|   |-0-|
E|------------------|x2 |-0-|x1

Verses
E|------------------|   |--------------------|
B|-3----------------|   |--------------------|
G|-2-2-2-22---------|   |--------------------|
D|-2-2-2-22-------2-|   |-------6p5p3--------|
A|----------3p2p0-2-|   |-0h3h5-------445678-|
E|----------------0-|x5 |-------------223456-|

Chorus
E|-----------------------------|
B|-----------------------------|
G|-4-44-2-4-4-4444-4-2222-4-44-|
D|-4-44-2-4-4-4444-4-2222-4-44-|
A|-2-22-0-2-2-2222-2-0000-2-22-|
E|-----------------------------|

Break
E|---------13b/16b-----17-17p16~~~\\-|
B|-7b/9b--/15b/18b-15b---------------|
G|-9b/11b/---------17b---------------|
D|-----------------------------------|
A|-----------------------------------|
E|-----------------------------------|
Tap to rate this tab
# A B C D E F G H I J K L M N O P Q R S T U V W X Y Z