Song name
# A B C D E F G H I J K L M N O P Q R S T U V W X Y Z

Washya - Dig Mudvayne tab

-------------------------------------------------------------------------------
                            Dig (Mudvayne) - Washya
-------------------------------------------------------------------------------
Tuning: Drop C (DAFCGC)
intro
D|--------|
A|--------|
F|-----7b-|
C|-0-0----|
G|-0-0-5b-|
C|-0-0----|x4

Main riff/Verses/Chorus (chad gray - Yeeeeeeeeeeeaaaaaaaahhhhh!!!!!)
D|-----------------------------------| |--------|
A|-----------------------------------| |--------|
F|-----------------------------------| |-----7b-|
C|-----------------------------------| |-0-0----|
G|-3-2--3-2-0-2-0-3-2--3-2-0-2-0-3-2-| |-0-0-5b-|
C|-3-2--3-2-0-2-0-3-2--3-2-0-2-0-3-2-| |-0-0----|

interlude (let me help you hold the glock against your head.........)
D|--------------------------------------------------------|
A|--------------------------------------------------------|
F|--------------------------------------------------------|
C|--------------------------------------------------------|
G|-2-2-222-22-2-2-2/3/5-4-3-22-2-2-222-32-3203032-2-2-543-|
C|-2-2-222-22-2-2-2/3/5-4-3-22-2-2-222-32-3202032-2-2-543-|
Tap to rate this tab
# A B C D E F G H I J K L M N O P Q R S T U V W X Y Z