Song name
# A B C D E F G H I J K L M N O P Q R S T U V W X Y Z

Washya - Lifeline tab

-----------------------------------------------------------------------------
                                    Life Line - Washya
-----------------------------------------------------------------------------
Tuning: Drop C (DAFCGC)
Intro
D|----------------------------------------------------------|
A|----------------------------------------------------------|
F|----------------------------------------------------------|
C|------8\7---------------8\7---------------5---7---9-------|
G|------6\5------2/3------6\5------2/3--------3---5---7-7\\-|
C|-0000-----0000-2/3-0000-----0000-2/3-0000-------------7\\-|x8
PM ****     ****     ****     ****     **** 

Main Riff/Chorus
D|-------------------------------------------------------------------------|
A|-------------------------------------------------------------------------|
F|----------------------------------------------5555-----5-----5-----------|
C|-----8\7---------5\4-------------7777\666-----5555---------5----101010\9-|
G|-3/5-6\5-5/6-2/3-3\2-1h3h4-3h5h6-5555\444-0h3-3333---3---3-----/8-8-8-\7-|
C|-3/5-----5/6-2/3-----1h3h4-3h5h6----------0h3-3333-3---------------------|
PM                                                   * *   * *  

Verses
D|--------------|   |------------------------------------------------|
A|--------------|   |------------------------------------------------|
F|------------5-|   |------------------------------------------------|
C|------------5-|   |--------------2p0-3p2p0-----0---2p0-0-----------|
G|-00-0-2/3\2-3-|   |-00-0-00-00-3-----------2h3---3-------2p0-3\2\0-|
C|-00-0-2/3\2---|x5 |-00-0-00-00-------------------------------3\2\0-|x3
PM ** *               ** * ** ** * *** ***** *** * * *** * *** 

Solo/Lead (small and fast)
D|------------------------------------------------------------------10p8p7~-|
A|----------------------------------------------------8h10---8h10p8---------|
F|-/8bv~---8h10p8-----------------------8h10---8h10p9------9----------------|
C|-------9--------9bv~----8h10---8h10p9------9------------------------------|
G|---------------------/9------9--------------------------------------------|
C|--------------------------------------------------------------------------|

D|-10p7---7h10p7---7h10p7------------------------12p10----13p12p10h13p12-|
A|------9--------9--------9p8p7---8p7---8p7h9h10-------12----------------|
F|------------------------------9-----9----------------------------------|
C|-----------------------------------------------------------------------|
G|-----------------------------------------------------------------------|
C|-----------------------------------------------------------------------|

D|-10h13p10h13p10h13p10-------15p13----14p12----------12----------17-17-17b-|
A|----------------------12h13-------15-------15p14p12----15p14p12-----------|
F|--------------------------------------------------------------------------|
C|--------------------------------------------------------------------------|
G|--------------------------------------------------------------------------|
C|--------------------------------------------------------------------------|

Tuning: Drop C (DAFCGC)
Intro
D|----------------------------------------------------------|
A|----------------------------------------------------------|
F|----------------------------------------------------------|
C|------8\7---------------8\7---------------5---7---9-------|
G|------6\5------2/3------6\5------2/3--------3---5---7-7\\-|
C|-0000-----0000-2/3-0000-----0000-2/3-0000-------------7\\-|x8
PM ****     ****     ****     ****     **** 

Main Riff/Chorus
D|-------------------------------------------------------------------------|
A|-------------------------------------------------------------------------|
F|----------------------------------------------5555-----5-----5-----------|
C|-----8\7---------5\4-------------7777\666-----5555---------5----101010\9-|
G|-3/5-6\5-5/6-2/3-3\2-1h3h4-3h5h6-5555\444-0h3-3333---3---3-----/8-8-8-\7-|
C|-3/5-----5/6-2/3-----1h3h4-3h5h6----------0h3-3333-3---------------------|
PM                                                   * *   * *  

Verses
D|--------------|   |------------------------------------------------|
A|--------------|   |------------------------------------------------|
F|------------5-|   |------------------------------------------------|
C|------------5-|   |--------------2p0-3p2p0-----0---2p0-0-----------|
G|-00-0-2/3\2-3-|   |-00-0-00-00-3-----------2h3---3-------2p0-3\2\0-|
C|-00-0-2/3\2---|x5 |-00-0-00-00-------------------------------3\2\0-|x3
PM ** *               ** * ** ** * *** ***** *** * * *** * *** 
Tap to rate this tab
# A B C D E F G H I J K L M N O P Q R S T U V W X Y Z