Song name
# A B C D E F G H I J K L M N O P Q R S T U V W X Y Z

Washya - Drifting Through Life tab

-------------------------------------------------------------------------------
                      Drifting Through Life - Washya
-------------------------------------------------------------------------------
Tuning: Drop D (EBGDAD)
Intro
E|------------------------------------------------------|
B|------------------------------------------------------|
G|-4444444/777777/9999999/1010101010/1212121212121212\\-|
D|------------------------------------------------------|
A|-2222222/555555/7777777/8-8-8-8-8-/1010101010101010\\-|
D|------------------------------------------------------|x14 

Part 2
E|---------------|
B|---------------|
G|--99----77p5~~-|
D|-----55--------|
A|---------------|
D|---------------|

Verses
E|--------------------------------------|
B|--------------------------------------|
G|-33-33--xx-x-3-5555-----------------3-|
D|-xx-33--33-33x-xxxx-----------------3-|
A|-11-11--11-111-3333-3p1---3p1-1-111-1-|
D|-xx-xx--xx-xxx-xxxx-----3-----1-111-1-|
                      *** * *** 

Chorus
E|-----------------------------------------------------------------|
B|-----------------------------------------------------------------|
G|-6666-4444-8888\7777-3333----------------------------------------|
D|-6666-4444-8888\7777-3333-6666-6-6\5555-5-5\3333-----------------|
A|-4444-2222-6666\5555-1111-4444-4-4\3333-3-3\1111-1h3p1-3p1-2h3p1-|
D|-4444-2222-6666\5555-1111------------------------------3---2h3p1-|
Tap to rate this tab
# A B C D E F G H I J K L M N O P Q R S T U V W X Y Z