Song name
# A B C D E F G H I J K L M N O P Q R S T U V W X Y Z

Washya - True Justice tab

-----------------------------------------------------------------------------
                                   True Justice - Washya
-----------------------------------------------------------------------------
Tuning: Drop D (DADGBE)
Intro
E|----------------------------------------2-------------------------------|
B|-------3---------------3------------3------------2----------------------|
G|-----------2---------------2------2---2------2--------------------------|
D|---4-----------2---4-----------2-----------0---0---------7-------5------|
A|-2---2---0---0---2---2---0---0-----------------------5-------3-----33h5-|
D|---------------------------------------------------0---0---0---0---33h5-|

Verses
E|---------------------------------|   |---------------------------------|
B|---------------------------------|   |---------------------------------|
G|-------5-------2-------8---------|   |-------77777-------55555---------|
D|-0-5-6-5-0-2-3-2-0-5-6-8-4-5-6\\-|   |-0-1-0-77777-0-1-0-55555-5h6-3-0-|
A|-0-5-6-3-0-2-3-0-0-5-6-6-4-5-6\\-|   |-0-1-0-55555-0-1-0-33333-5h6-3-0-|
D|-0-5-6---0-2-3---0-5-6---4-5-6\\-|x6 |-0-1-0-------0-1-0-------5h6-3-0-|x1

Chorus
E|------------------------------------------------------------------------|
B|------------------------------------------------------------------------|
G|-88887777-77778888-33333333-9999-1010-----------------------------------|
D|-88887777-77778888-33333333/9999-1010-77777h8-55-5-55-------3p2p0/6--\\-|
A|-55555555-55555555-11111111/7777-7-7--77777h8-55-5-55h6p4p2-3p2p0/6--\\-|
D|----------55555555-11111111-----------77777h8-55-5-55-------3p2p0/6b~\\-|

Solo
E|-------------------------------------------------------------------|
B|-------------------------------7b-----------------------------12b~-|
G|-------------------------------9b~/12p11----12p11----12p11----14b~-|
D|-------12p9h12p9h12p9b~----5b~-----------11-------11-------11------|
A|-/9-11------------------/7-----------------------------------------|
D|-------------------------------------------------------------------|

E|-------------------------------------------------------------------------|
B|------17-17--18b-17h18h19bp17h19p17b-------------------------------------|
G|-/15b--------------------------------15b---------------------------------|
D|-----------------------------------------------9b--5b-------3h4h5/7h9h10-|
A|-----------------------------------------12b----------3h4h5--------------|
D|-------------------------------------------------------------------------|
PM                                                      ***** ***** ******

E|--------------------------------------------------------------------15~-|
B|-----------------------------------------10h12----10h12----15p13p12-----|
G|-----------------10p9p7h9h10----10h12h13-------13-------13--------------|
D|---------9h10h11-------------11-----------------------------------------|
A|-9h10h11----------------------------------------------------------------|
D|------------------------------------------------------------------------|

E|-13h15p13h15p13h15\14p12h14p12h14p12\10h12p10h12p10-----8---------------|
B|----------------------------------------------------7h9---9p7-----------|
G|--------------------------------------------------------------9p8p7-----|
D|--------------------------------------------------------------------8~\-|
A|------------------------------------------------------------------------|
D|------------------------------------------------------------------------|

Tuning: Drop D (DADGBE)
Intro
E|----------------------------------------2-------------------------------|
B|-------3---------------3------------3------------2----------------------|
G|-----------2---------------2------2---2------2--------------------------|
D|---4-----------2---4-----------2-----------0---0---------7-------5------|
A|-2---2---0---0---2---2---0---0-----------------------5-------3-----33h5-|
D|---------------------------------------------------0---0---0---0---33h5-|

Verses
E|---------------------------------|   |---------------------------------|
B|---------------------------------|   |---------------------------------|
G|-------5-------2-------8---------|   |-------77777-------55555---------|
D|-0-5-6-5-0-2-3-2-0-5-6-8-4-5-6\\-|   |-0-1-0-77777-0-1-0-55555-5h6-3-0-|
A|-0-5-6-3-0-2-3-0-0-5-6-6-4-5-6\\-|   |-0-1-0-55555-0-1-0-33333-5h6-3-0-|
D|-0-5-6---0-2-3---0-5-6---4-5-6\\-|x6 |-0-1-0-------0-1-0-------5h6-3-0-|x1

Chorus
E|------------------------------------------------------------------------|
B|------------------------------------------------------------------------|
G|-88887777-77778888-33333333-9999-1010-----------------------------------|
D|-88887777-77778888-33333333/9999-1010-77777h8-55-5-55-------3p2p0/6--\\-|
A|-55555555-55555555-11111111/7777-7-7--77777h8-55-5-55h6p4p2-3p2p0/6--\\-|
D|----------55555555-11111111-----------77777h8-55-5-55-------3p2p0/6b~\\-|
Tap to rate this tab
# A B C D E F G H I J K L M N O P Q R S T U V W X Y Z