Song name
# A B C D E F G H I J K L M N O P Q R S T U V W X Y Z

Washya - For Whom The Bell Tolls tab

-----------------------------------------------------------------------------
                 For Whom The Bell Tolls - Washya (Metallica)
-----------------------------------------------------------------------------
Tuning: Standard (EBGDAE)
Intro (Guitar 1) James
E|---------------|
B|---------------|
G|---------------|
D|-44-44-2-4-4-2-|
A|-44-44-2-4-4-2-|
E|-22-22-0-2-2-0-|

Intro (Guitar 2) Kirk
E|--------------------------|
B|--------------------------|
G|-12-11-10-9------12-------|
D|------------10-9----10----|
A|-----------------------9~-|
E|--------------------------|x7

Verses Kirk
E|-----------------|
B|-----------------|
G|-12-9-11----9h11-|
D|---------12------|
A|-----------------|
E|-----------------|x14


E|-------------------------------------------|
B|-------------------------------------------|
G|-------------------------------------------|
D|-2-5-4-3-2-5-4-3-2-5-4-3-2-5-4-3-2-3-4-5-2-|
A|-2-5-4-3-2-5-4-3-2-5-4-3-2-5-4-3-2-3-4-5-2-|
E|-0-3-2-1-0-3-2-1-0-3-2-1-0-3-2-1-0-1-2-3-0-|
PM * * * * * * * * * * * * * * * * * * * *    

Verses james
E|-------------|
B|-------------|
G|-------------|
D|-2-5-7-2-7-5-|
A|-2-5-7-2-7-5-|
E|-0-3-5-0-5-3-|

Part 2  (Chorus) 1st ending   2nd ending
E|-------------------------| |-------|
B|-------------------------| |-------|
G|---------------------3---| |-3-----|
D|-222-5-222-7-222-5-2-3-5-| |-3-5-3-|
A|-222-5-222-7-222-5-2-1-5-| |-1-5-3-|
E|-000-3-000-5-000-3-0---3-| |---3-1-|

Ending
E|----------------|
B|----------------|
G|----------------|
D|-2-55-2-55-77-2-|
A|-2-55-2-55-77-2-|
E|-0-33-0-33-55-0-|
Tap to rate this tab
# A B C D E F G H I J K L M N O P Q R S T U V W X Y Z