Song name
# A B C D E F G H I J K L M N O P Q R S T U V W X Y Z

Washya - Super Brotherin tab

------------------------------------------------------------------------------
                        Super Brotherin - Washya
------------------------------------------------------------------------------
Tuning: Standard (EBGDAE)
Intro
E|---------------------------|   |------------|
B|---------------------------|   |------------|
G|---------------------------|   |------------|
D|-------------4-------------|   |-777-33-5\\-|
A|-----5-----5---5-4-3-3/4/5-|   |-555-11-3\\-|
E|-3-6---3-6-----------1/2/3-|x3 |------------|
PM * * * * * * * * * * 

Verses
E|-----------------|    |-------------------|
B|-----------------|    |-------------------|
G|-----------------|    |-------------------|
D|-----------------|    |-------------------|
A|---------5-4-3---|    |-55---55---55---3~-|
E|-3-6-3-6-------5-|x13 |-33-x-33-x-33-x-1~-|
PM * * * *       *

Chorus
E|-------------------------------------------------|
B|-------------------------------------------------|
G|-------------------------------------------------|
D|---------------------55---33-----------------7\\-|
A|-55---55---55---55---33---11---55---7--7--7--7\\-|
E|-33-x-33-x-33-x-33-x----x----x-33-x-5--5--5--5\\-|
Tap to rate this tab
# A B C D E F G H I J K L M N O P Q R S T U V W X Y Z