Song name
# A B C D E F G H I J K L M N O P Q R S T U V W X Y Z

Washya - Blood Of The Empress tab

-----------------------------------------------------------------------------
                        Blood Of The Empress - Washya
-----------------------------------------------------------------------------
Tuning: Drop D (DADGBE)
Intro
E|--------------------------------------------------------|
B|--------------------------------------------------------|
G|--------------------------------------------------------|
D|---------------7---------------3*-----------------------|
A|-------5---------------8--------------------------------|
D|-0-000---0-000---0-000---0-000----0-000-0-3-5-0-5-3-2-1-|
PM . ...   . ...   . ...   . ...    . ... 

E|------------------------------------------------------------------------|
B|------------------------------------------------------------------------|
G|------------------------------12*---------------------------------------|
D|---------------7-------8-8/10-------------------------4h5p4-----------3-|
A|-------5--------------------------------3-------------------7-5-3-----3-|
D|-0-000---5-555---5-555------------0-000---3333-3-3333-------------5h6p3-|x4
PM . ...   . ...   . ...            . ...   .... . ....  

Verses
E|-------------------------------------------------------------|
B|-------------------------------------------------------------|
G|-------------------------------------------------------------|
D|---------------------------------------8p7p5---5-----------3-|
A|----------------7h8h9p8p7--------------------8---7h8p5-----3-|
D|-0000-00-00-7h8-----------8-8888-88-88-----------------6p5p3-|
PM .... .. ..                 .... .. .. 

Chorus
E|------------------------------------------------------------------------|
B|------------------------------------------------------------------------|
G|--------------------------------8\7\6--------------------------------9*-|
D|-0-5-2-0-5-2-----6-0-3-6-3------8\7\6-6-5-3-----3-6---6-0-6--------7----|
A|-0-5-2-0-5-2-----6-0-3-6-3------6\5\4-6-5-3-----3-6---6-0-6------6------|
D|-0-5-2-0-5-2-22226-0-3-6-3-3333-------6-5-3-33333-6-0-6-0-6-6666--------|
PM             ....          ....             ....    .       ....   

Interlude (slow and eerie) 
E|------------------------------------<12>----------------------------|
B|-------3------------------------------------------------------------|
G|-----0----------------------------------------5---------------------|
D|---2-------5-----0---3p2p0-------10------10\7---7-------5-3-7-----5-|
A|-------------5\2-----------5/7--------------------------------5-3-5-|
D|-0-------5---------0-----------0------------------0-3h5-----------5-|x2


Heavy Ending (fadeout)
E|-----------------------------------------------------------------------|
B|-----------------------------------------------------------------------|
G|-----------------------------------------------------------------------|
D|-------3---3/6-------------777777\77777-----7---7p4------------765-635-|
A|-------3---3/6--------3p2*-555555\44444---4---7-----7p4-7777h8-765-635-|
D|-0-000-3-0-3/6--0h3p0-------------------0---------------7777h8-----635-|
PM * ***                          
Tap to rate this tab
# A B C D E F G H I J K L M N O P Q R S T U V W X Y Z