Song name
# A B C D E F G H I J K L M N O P Q R S T U V W X Y Z

Wasp - Mercy tab

Help us improve GuitareTab! Take a short survey!
Sorry, I don't know the solo, and this is my first tab, so try to cut me some slack, I'm only 14.

E mail Comments, Correctuions, Questions to sheldonboy12@yahoo.com

Tuning: Drop D (D A D G B E)

Intro
Guitar 1
Play 8 times (2 alone, 6 with Guitar 2)
E||------------------------------------|
B||------------------------------------|
G||------------------------------------|
D||------------------------------------|
A||---------------------------------2-4|
D||-0-0-2-0-0--0-0-2-0-0--0-0-2-0-0----|
Palm Mute 6th String

Guitar 2 (Comes in after Guitar 1 plays the above 2 times)
Play 6 times
E||-----------------------------|
B||-----------------------------|
G||------13-11-------11----11---|
D||-11-11--------14-----14----14|
A||-----------------------------|
D||-----------------------------|


Verse
Guitar 1
I'm not sure how may times you play this..
E||--------------------|
B||--------------------|
G||--------------------|
D||--------------------|
A||--------------------|
D||-0-0--0-0--0-0--0-0-|
Palm Mute throughout

Guitar 2 plays some fills throught the verse which I havent fugured out either, sorry.

Pre- chorus
Both Guitars
Play twice
E||----------------------------------|
B||----------------------------------|
G||----------------------------------|
D||----------------------------------|
A||-11--9-11--9-11--9-11--9-11-14-14-|
D||-11--9-11--9-11--9-11--9-11-14-14-|

Chorus
Both Guitars
Play the Whole thing Twice
E||---------------------------|---------------------------|
B||---------------------------|---------------------------|
G||---------------------------|---------------------------|
D||---------------------------|-15-15--15-15--15-15--15-15|
A||-11-11--11-11--11-11--11-11|-13-13--13-13--13-13--13-13|
D||-11-11--11-11--11-11--11-11|---------------------------|
  "I'll make you cry for Mercy  I'll make you cry out loud
  Gonna make you cry for Mercy Nobody never gonna hear you now

E||---------------------------|---------------------------|
B||---------------------------|---------------------------|
G||---------------------------|---------------------------|
D||-12-12--12-12--12-12--12-12|---------------------------|
A||-10-10--10-10--10-10--10-10|-11-11--11-11--11-11--11-11|
D||---------------------------|-11-11--11-11--11-11--11-11|
  You're gonna lie and curse me  Hurt me, burn me now
 I'll make you mine but first I I'll make you cry out loud

After the chorus Play guitar 2's intro part 4 times
(While Blackie sings "Out loud. Ooh out loud. Ooh out loud)
Then play te whole thing again, then the solo, then the chorus again. Enjoy!
Related for Mercy tab