Song name
# A B C D E F G H I J K L M N O P Q R S T U V W X Y Z

Wasp - On Your Knees tab

-------------------------------------------------------------------------------
			     On your knees -wasp
-------------------------------------------------------------------------------
W.A.S.P.
On your knees
W.A.S.P.
capitol records 1984

Tabbed by:cruehead419
Email:gnrfan300@yahoo.com
note this is the way it sounds on double live assasins

Tuning:EbAbDbGbBbEb
intro
e|-----------------------------------------------------------------------------|
B|-----------------------------------------------------------------------------|
G|-----------------------------------------------------------------------------|
D|-----------------------------------------------------------------------------|
A|22222222222222222222222222222222---------------------------------------------|
E|00000000000000000000000000000000---------------------------------------------|
main riff
e|---------------------------------------------------------------------------|
B|---------------------------------------------------------------------------|
G|---------------------------------------------------------------------------|
D|9-7-9----------9-7-9-----------5----7-----9-7-9----------6----4-----9-7-9--|
A|7-5-7----------7-5-7-----------5----7-----7-5-7----------4----2-----7-5-7--|
E|------00000000-------0000000---3----5-------------000000-------------------|
pm              pm                           pm

e|------------------------------------------|
B|------------------------------------------|
G|------------------------------------------|
D|----------9-7-9--------------5----7----9--|
A|----------7-5-7--------------5----7----7--|
E|00000000---------00000000----3----5----7--|
pm          pm

chourus
e|------------------------------------------------------------------------------|
B|------------------------------------------------------------------------------|
G|------------------------------------------------------------------------------|
D|-2-0-2------5-5--7-----2-0-2-------5-5--7-------------------------------------|
A|-2-0-2------5-5--7-----2-0-2-------5-5--7-------------------------------------|
E|-0-0-0------3-3--5-----0-0-0-------3-3--5-------------------------------------|


| /  slide up
| \  slide down
| h  hammer-on
| p  pull-off
| ~  vibrato
| +  harmonic
| x  Mute note
===============================================================================
Tap to rate this tab
 
# A B C D E F G H I J K L M N O P Q R S T U V W X Y Z