Song name
# A B C D E F G H I J K L M N O P Q R S T U V W X Y Z

Wasp - Hold On To My Heart tab

Wasp - Hold On To My Heart
From the album - The Crimson Idol (1992)

Tuning: 1/2 step down

b = bend
h = hammer on
p = pull off

I noticed that none of the other tabs for this song included the solo so I
thought i'd make a tab for it on its own.  There are plenty of good tabs
for the chords of the song already.

SOLO
e|----------------------------------------------------------------------|
B|------------------------------------------------------9h10p9-12-14b14-|
G|-------------------------------6-13-11---9---9-9-9h11-----------------|
D|-7--7-9-11--9-7h9p7-6h7p9-4-------------------------------------------|
A|----------------------------------------------------------------------|
E|----------------------------------------------------------------------|

e|------------------------------------------------------------------------|
B|-10h12p10-9h10p9-12--14--10h12p10-9h10p9-7p5h7-----10p9-7-7---10p9-7-14-|
G|------------------------------------------------------------------------|
D|------------------------------------------------------------------------|
A|------------------------------------------------------------------------|
E|------------------------------------------------------------------------|

e|--------------------|
B|-10---10---10---12--|
G|-13b--13b--13b--15--|b
D|--------------------|
A|--------------------|
E|--------------------|
Tap to rate this tab
 
# A B C D E F G H I J K L M N O P Q R S T U V W X Y Z