Wasp - Shadow Man tab

-------------------------------------------------------------------------------
			     Shadow Man - Wasp
-------------------------------------------------------------------------------
Tabbed by:dracojordan777
Email:jordan_mouratsing@hotmail.co.uk

Tuning:Half-step down

Intro

e|---------------------------------------------------------------------------|
B|---------------------------------------------------------------------------|
G|---------------------------------------------------------------------------|
D|---------------------------------------------------------------------------|
A|-77-77-787-77-77-787-777-8-777-8-7777787-77-77-787-77-77-787-777-8-777-8---|
E|---------------------------------------------------------------------------|

e|---------------------------------------------------------------------------|
B|---------------------------------------------------------------------------|
G|---------------------------------------------------------------------------|
D|---------------------------------------------------------------------------|
A|7777787-77-77-787-77-77-787-777-8-777-8-7777787-77-77-787-77-77-787-777----|
E|---------------------------------------------------------------------------|

e|---------------------------------------------------------------------------|
B|---------------------------------------------------------------------------|
G|---------------------------------------------------------------------------|
D|---------------------------------------------------------------------------|
A|8-777-8-7777787------------------------------------------------------------|
E|---------------------------------------------------------------------------|

Main riff repeat x2 then go into the verse               
e|---------------------------------------------------------------------------|
B|---------------------------------------------------------------------------|
G|---------------------------------------------------------------------------|
D|-9-9-9-9-9-9-7-9--9-9-9-7-9-12--9-9-9-9-7-9-12-9-12-14b1514-12-------------|
A|-7-7-7-7-7-7-5-7--7-7-7-5-7-10--7-7-7-7-5-7-10-7-10-12b1312-10-------------|
E|---------------------------------------------------------------------------|
Verse repeat x2 then go into pre-chorus
e|---------------------------------------------------------------------------|
B|---------------------------------------------------------------------------|
G|---------------------------------------------------------------------------|
D|------------------------7-9-9-------------------------12-9-12-14b1514-12---|
A|------------------------5-7-7-------------------------10-7-10-12b1312-10---|
E|0-000-0-000-0-000-0-000-------0-000-0-000-0-000-0-000----------------------|
Pre-chorus
e|---------------------------------------------------------------------------|
B|---------------------------------------------------------------------------|
G|---------------------------------------------------------------------------|
D|9----7----9----12----------------------------------------------------------|
A|7----5----7----10-77-77-787-77-77-787-777-8-777-8-7777787-77-77-787-77-77--|
E|---------------------------------------------------------------------------|

e|---------------------------------------------------------------------------|
B|---------------------------------------------------------------------------|
G|---------------------------------------------------------------------------|
D|---------------------------------------------------------------------------|
A|787-777-8-777-8-777787-----------------------------------------------------|
E|---------------------------------------------------------------------------|
Solo
e|-------------------------------------191817h18p17-----------------17-18----|
B|-----------12-11-10------------------------------20-17------17-20----------|
G|9-999-12-9----------12-9-999-9-12-9-------------------19b20----------------|
D|---------------------------------------------------------------------------|
A|---------------------------------------------------------------------------|
E|---------------------------------------------------------------------------|

e|181715---------------------------------------------------------------------|
B|------171512----------1215171512----------1215171512----------1215171512---|
G|------------1514121415----------1514121415----------1514121415-------------|
D|---------------------------------------------------------------------------|
A|---------------------------------------------------------------------------|
E|---------------------------------------------------------------------------|

e|--------------------------------------------181715-------------------------|
B|--------------------------------------------------171512-------------------|
G|151412/9--9-9-9999-12-9-12-9-9-9999-12-9-12-------------151412/9--9--------|
D|--------12--9-9999-12-9-12-9-9-9999-12-9-12---------------------12---------|
A|---------------------------------------------------------------------------|
E|---------------------------------------------------------------------------|

e|--------------------------------------------------17------18------19-------|
B|------11h12p11-10h11p10------11h12p11-10----172017--172017--172017---------|
G|--9-12-----------------9-9-12-----------12---------------------------------|
D|---------------------------------------------------------------------------|
A|---------------------------------------------------------------------------|
E|---------------------------------------------------------------------------|

e|------22------24-24-24-----------------------------------------------------|
B|172017--172017-------------------------------------------------------------|
G|---------------------------------------------------------------------------|
D|---------------------------------------------------------------------------|
A|---------------------------------------------------------------------------|
E|---------------------------------------------------------------------------|

intro
riff
verse
pre-chorus
chorus is main riff played twice on the first time socond time play it four times
after the solo play the intro then the main four times then back into the intro


************************************

| /   slide up
| \   slide down
| h   hammer-on
| p   pull-off
| ~   vibrato
| +   harmonic
| x   Mute note
| b   Bend
| pb  Pre-bend
| br  Bend release
| pbr Pre-bend release
| brb Bend release bend

************************************
Tap to rate this tab
 
# A B C D E F G H I J K L M N O P Q R S T U V W X Y Z