Song name
# A B C D E F G H I J K L M N O P Q R S T U V W X Y Z

Wasted Youth - We Were On Heroin tab

-------------------------------------------------------------------------------
We Were On Heroin - Wasted Youth
Reagan's In
-------------------------------------------------------------------------------
Tabbed by: axeslash
Email: holmzito@yahoo.com

Tuning: Standard

e|------------------------------------|
B|------------------------------------|
G|-10-9-7-5---------7/9-9--9-7/9-9--9-|
D|-10-9-7-5-5-5-7-7-7/9-9--9-7/9-9--9-|
A|--8-7-5-3-5-5-7-7-5/7-7--7-5/7-7--7-|
E|----------3-3-5-5-------------------| x4
           [X-X-X-X]

e|-------------------------------------------------------------------------|
B|-------------------------------------------------------------------------|
G|-12-12-12-12-12-12-12-12-6-6-6-6-6-6-6-6-9-9-9-9-9-9-9-9-9-9-9-9-9-9-9-9-|
D|-12-12-12-12-12-12-12-12-6-6-6-6-6-6-6-6-9-9-9-9-9-9-9-9-9-9-9-9-9-9-9-9-|
A|-10-10-10-10-10-10-10-10-4-4-4-4-4-4-4-4-7-7-7-7-7-7-7-7-7-7-7-7-7-7-7-7-|
E|----------------------------------------[X-X-X-X-X-X-X-X-X-X-X-X-X-X-X-X]|

e|-------------------------------------------------------------------------|
B|-------------------------------------------------------------------------|
G|-12-12-12-12-12-12-12-12-6-6-6-6-6-6-6-6---------------------------------|
D|-12-12-12-12-12-12-12-12-6-6-6-6-6-6-6-6-7-7-7-7-7-7-7-7-7-7-7-7-7-7-7-7-|
A|-10-10-10-10-10-10-10-10-4-4-4-4-4-4-4-4-7-7-7-7-7-7-7-7-7-7-7-7-7-7-7-7-|
E|-----------------------------------------5-5-5-5-5-5-5-5-5-5-5-5-5-5-5-5-|
                                          [X-X-X-X-X-X-X-X-X-X-X-X-X-X-X-X]

e|-------------------------------------------------------------------------|
B|-------------------------------------------------------------------------|
G|-12-12-12-12-12-12-12-12-6-6-6-6-6-6-6-6-9-9-9-9-9-9-9-9-9-9-9-9-9-9-9-9-|
D|-12-12-12-12-12-12-12-12-6-6-6-6-6-6-6-6-9-9-9-9-9-9-9-9-9-9-9-9-9-9-9-9-|
A|-10-10-10-10-10-10-10-10-4-4-4-4-4-4-4-4-7-7-7-7-7-7-7-7-7-7-7-7-7-7-7-7-|
E|----------------------------------------[X-X-X-X-X-X-X-X-X-X-X-X-X-X-X-X]|

e|-------------------------------------------------------------------------|
B|-------------------------------------------------------------------------|
G|-12-12-12-12-12-12-12-12-6-6-6-6-6-6-6-6---------------------------------|
D|-12-12-12-12-12-12-12-12-6-6-6-6-6-6-6-6-7-7-7-7-7-7-7-7-7-7-7-7-7-7-7-7-|
A|-10-10-10-10-10-10-10-10-4-4-4-4-4-4-4-4-7-7-7-7-7-7-7-7-7-7-7-7-7-7-7-7-|
E|-----------------------------------------5-5-5-5-5-5-5-5-5-5-5-5-5-5-5-5-|
                                          [X-X-X-X-X-X-X-X-X-X-X-X-X-X-X-X]

e|------------------------------------|
B|------------------------------------|
G|-10-9-7-5---------7/9-9--9-7/9-9--9-|
D|-10-9-7-5-5-5-7-7-7/9-9--9-7/9-9--9-|
A|--8-7-5-3-5-5-7-7-5/7-7--7-5/7-7--7-|
E|----------3-3-5-5-------------------| x4
           [X-X-X-X]

e|-------------------------------------------------------------------------|
B|-------------------------------------------------------------------------|
G|-12-12-12-12-12-12-12-12-6-6-6-6-6-6-6-6-9-9-9-9-9-9-9-9-9-9-9-9-9-9-9-9-|
D|-12-12-12-12-12-12-12-12-6-6-6-6-6-6-6-6-9-9-9-9-9-9-9-9-9-9-9-9-9-9-9-9-|
A|-10-10-10-10-10-10-10-10-4-4-4-4-4-4-4-4-7-7-7-7-7-7-7-7-7-7-7-7-7-7-7-7-|
E|----------------------------------------[X-X-X-X-X-X-X-X-X-X-X-X-X-X-X-X]|

e|-------------------------------------------------------------------------|
B|-------------------------------------------------------------------------|
G|-12-12-12-12-12-12-12-12-6-6-6-6-6-6-6-6---------------------------------|
D|-12-12-12-12-12-12-12-12-6-6-6-6-6-6-6-6-7-7-7-7-7-7-7-7-7-7-7-7-7-7-7-7-|
A|-10-10-10-10-10-10-10-10-4-4-4-4-4-4-4-4-7-7-7-7-7-7-7-7-7-7-7-7-7-7-7-7-|
E|-----------------------------------------5-5-5-5-5-5-5-5-5-5-5-5-5-5-5-5-|
                                          [X-X-X-X-X-X-X-X-X-X-X-X-X-X-X-X]

e|-------------------------------------------------------------------------|
B|-------------------------------------------------------------------------|
G|-12-12-12-12-12-12-12-12-6-6-6-6-6-6-6-6-9-9-9-9-9-9-9-9-9-9-9-9-9-9-9-9-|
D|-12-12-12-12-12-12-12-12-6-6-6-6-6-6-6-6-9-9-9-9-9-9-9-9-9-9-9-9-9-9-9-9-|
A|-10-10-10-10-10-10-10-10-4-4-4-4-4-4-4-4-7-7-7-7-7-7-7-7-7-7-7-7-7-7-7-7-|
E|----------------------------------------[X-X-X-X-X-X-X-X-X-X-X-X-X-X-X-X]|

e|-------------------------------------------------------------------------|
B|-------------------------------------------------------------------------|
G|-12-12-12-12-12-12-12-12-6-6-6-6-6-6-6-6---------------------------------|
D|-12-12-12-12-12-12-12-12-6-6-6-6-6-6-6-6-7-7-7-7-7-7-7-7-7-7-7-7-7-7-7-7-|
A|-10-10-10-10-10-10-10-10-4-4-4-4-4-4-4-4-7-7-7-7-7-7-7-7-7-7-7-7-7-7-7-7-|
E|-----------------------------------------5-5-5-5-5-5-5-5-5-5-5-5-5-5-5-5-|
                                          [X-X-X-X-X-X-X-X-X-X-X-X-X-X-X-X]

e|------------------------------------|
B|------------------------------------|
G|-10-9-7-5---------7/9-9--9-7/9-9--9-|
D|-10-9-7-5-5-5-7-7-7/9-9--9-7/9-9--9-|
A|--8-7-5-3-5-5-7-7-5/7-7--7-5/7-7--7-|
E|----------3-3-5-5-------------------| x4
           [X-X-X-X]

| /  slide up
| \  slide down
| h  hammer-on
| p  pull-off
| ~  vibrato
| +  harmonic
| x  Mute note
===============================================================================
Tap to rate this tab
 
# A B C D E F G H I J K L M N O P Q R S T U V W X Y Z