Song name
# A B C D E F G H I J K L M N O P Q R S T U V W X Y Z

Wasted Youth - Youre A Jerk tab

You're A Jerk
Wasted Youth
Tabbed by Rob Hall (bakusa)

(You don't mean nothing to me...)
e-----------------------------------------------|
B-----------------------------------------------|
G-----------------------------------------------|
D-----------------------------------------------|
A--5--0--0--0--0--7--0--0--0--0--5--13----------|
E--3--0--0--0--0--5--0--0--0--0--3--12----------|

(You're a jerrrrrkkkk...)
e-----------------------------------------------|
B-----------------------------------------------|
G-----------------------------------------------|
D-----------------------------------------------|
A--5--5--4--4--3--------------------------------|
E--3--3--2--2--1--------------------------------|
Tap to rate this tab
 
# A B C D E F G H I J K L M N O P Q R S T U V W X Y Z