Guitaretab - guitar tabs
Song name
# A B C D E F G H I J K L M N O P Q R S T U V W X Y Z

Wasted Youth - Teenage Nark tab

Very cool song from L.A's Wasted Youth
[ Tab from: http://www.guitaretab.com/w/wasted-youth/86613.html ]
e|---------------------------------------------|
B|---------------------------------------------|
G|---------------------------------------------|
D|-8888-10101010-888--66-55--------------------|X 4
A|-8888-10101010-888--66-55--------------------|
E|-6666-8-8-8-8--666--44-33--------------------|

e|--------------------------------------------|
B|--------------------------------------------|
G|--------------------------------------------|
D|12-12-12-12-8888-6666-11-11-11-11-----------|X 4
A|12-12-12-12-8888-6666-11-11-11-11-----------|
E|10-10-10-10-6666-4444-9--9--9--9------------|
Related for Teenage Nark tab
Teenage Nark chords by Wasted Youth