Song name
# A B C D E F G H I J K L M N O P Q R S T U V W X Y Z

Wat Tyler - Justify Your Book tab

-------------------------------------------------------------------------------
			     JUSTIFY YOUR BOOK - Wat Tyler
-------------------------------------------------------------------------------
Tabbed by: Pauly Person
Email:philtrum69@hotmail.com
Band info: http://en.wikipedia.org/wiki/Wat_Tyler_%28band%29

Tuning:standard

intro
e|---------------------------------------------------------------------------|
B|---------------------------------------------------------------------------|
G|---------------------------------------------------------------------------|
D|----2-2-2-2-----4--4-------------------------------------------------------|
A|----0-0-0-0-----2--2-------------------------------------------------------|
E|---------------------------------------------------------------------------|

verse
e|---------------------------------------------------------------------------|
B|---------------------------------------------------------------------------|
G|-------------------------------2-------------------------------------------|
D|--2----------------------------2-----2-2-2-2-2-2-2-2-2-2-------------------|
A|--2-----2-2-2-2-2-2-2-2-2-2----0-----0-0-0-0-0-0-0-0-0-0-------------------|
E|--0-----0-0-0-0-0-0-0-0-0-0------------------------------------------------|

e|---------------------------------------------------------------------------|
B|---------------------------------------------------------------------------|
G|-------------------------------2-------------------------------------------|
D|--2----------------------------2-----2-2-2-2-2-2-2-2-2-2-------------------|
A|--2-----2-2-2-2-2-2-2-2-2-2----0-----0-0-0-0-0-0-0-0-0-0-------------------|
E|--0-----0-0-0-0-0-0-0-0-0-0------------------------------------------------|

e|---------------------------------------------------------------------------|
B|---------------------------------------------------------------------------|
G|---------------------7---7-7-7-7-7-7---6---6-6-6-6-6-6----7---7-7-7-7-7-7--|
D|--2------------------7---7-7-7-7-7-7---7---7-7-7-7-7-7----7---7-7-7-7-7-7--|
A|--2---2-2-2-2-2-2----5---5-5-5-5-5-5---7---7-7-7-7-7-7----5---5-5-5-5-5-5--|
E|--0---0-0-0-0-0-0----------------------5---5-5-5-5-5-5---------------------|
  ...want to Love like this  ooh oh   .. I just want to ....this

e|---------------------------------------------------------------------------|
B|---------------------------------------------------------------------------|
G|---------------------7---7-7-7-7-7-7---6---6-6-6-6-6-6----7---7-7-7-7-7-7--|
D|--2------------------7---7-7-7-7-7-7---7---7-7-7-7-7-7----7---7-7-7-7-7-7--|
A|--2---2-2-2-2-2-2----5---5-5-5-5-5-5---7---7-7-7-7-7-7----5---5-5-5-5-5-5--|
E|--0---0-0-0-0-0-0----------------------5---5-5-5-5-5-5---------------------|

Chorus
e|---------------------------------------------------------------------------|
B|-------------------6-------------------------------------------------------|
G|--5----------------6----------------6--------------------------------------|
D|--6----------------6----------------7--------------------------------------|
A|--6----------------4----------------7--------------------------------------|
E|--4---------------------------------5--------------------------------------|
   sex .. sex-less  Er-otica   .....Pa-thetica

e|---------------------------------------------------------------------------|
B|-------------------6-------------------------------------------------------|
G|--5----------------6----------------6--------------------------------------|
D|--6----------------6----------------7--------------------------------------|
A|--6----------------4----------------7--------------------------------------|
E|--4---------------------------------5--------------------------------------|
   sex .. sex-less  Er-otica    ....Pa-thetica



************************************

| /   slide up
| \   slide down
| h   hammer-on
| p   pull-off
| ~   vibrato
| +   harmonic
| x   Mute note
| b   Bend
| pb  Pre-bend
| br  Bend release
| pbr Pre-bend release
| brb Bend release bend

************************************
Tap to rate this tab
# A B C D E F G H I J K L M N O P Q R S T U V W X Y Z