Song name
# A B C D E F G H I J K L M N O P Q R S T U V W X Y Z

Watch Them Die - Sadist Ways tab

Watch them die website: watchthemdie.com
Tabbed by metal_militia16

This is a really fucking good band worth listening to!
I ain't sure, but I think they tune down a whole step to DGCFAD,
but it sounds ok in 440 tuning, too.

Intro x2
E----------------|-----------------|--------------|--------------------
B----------------|-----------------|--------------|--------------------
G---------9------|-----------------|--------------|--------------------
D---------9------|-----------------|---------9----|--------------------
A---------7------|-7p5--5p3-3p2--3-|---------7----|-7p5--5p3-3p2-------
E-000-000-----00-|----0----0---0-1-|-000-000---00-|-----0----0---2h3h5-
   

Verse 1 Riff (Two Guitars, guitar 1 plays riff 1)

E -------------|-----------------|---------------|-------------------|
B--------------|-----------------|---------------|-------------------|
G--------------|-----------------|---------------|-------------------|
D---------5----|-5p4-4p2-2p0-----|---------5-----|-5p4-4p2-2p0-2h3h5-|
A---------7----|----------------3|---------7-----|-------------------|
E-000-000---00-|----0---0----0-1-|-000-000----00-|----0---0---0------|

Chorus X$

E-----------------|
B-----------------|
G-----------------|
D-----------------|
A-2--3-6-5----8-5-|
E-0--1-4-3----6-3-|

Verse 2 Riff


E---------|----------|-----------|
B---------|----------|-----------|
G---------|----------|-----------|
D---------|-Repeatx2-|-5-5-5-----|
A---7-8-5-|----------|-3-3-3-5-7-|
E-00-0-0--|----------|-------3-5-|

Interlude  (Not 100% Sure)

N.H............
E-----------------|-----------------|-----------5555--|
B-----------------|-----------------|-----------5555--|
G-----------------|-----------------|--------/5-5555--|
D-----------------|-----------------|-----------------|
A-----------------|-----------------|-----------------|
E-000-000-000-000-|-000-000-000-000-|-000-000---------|

That's basically it, just listen to the song to get the rythm & order of the riffs right
(I'm too damned lazy to point it all out for you), oh and one more thing: Those jackasses
at TABORAMA.COM better not take my tab!!They thake all of my fuckin tabs and it pisses me off!
Tap to rate this tab
 
# A B C D E F G H I J K L M N O P Q R S T U V W X Y Z