Song name
# A B C D E F G H I J K L M N O P Q R S T U V W X Y Z

Watchtower - Forever Cold tab

Help us improve GuitareTab! Take a short survey!
CAPO ON 2ND FRET

e-------------------------------------------------------------------------|
B-------------------------------------------------------------------------|
G-------------------------------------------------------------------------|
D------2------0------0--2-----------2-------0-------2h3p2-----------------|
A---3-----3------3--------------3-------3------3--------------------------|
E-------------------------------------------------------------------------|


e-------------------------------------------------------------------------|
B-------------------------------------------------------------------------|
G-------------------------------------------------------------------------|
D------2------0------0--2-----------2-------0-----------------------------|
A---3-----3------3--------------3-------3--------3--2--0------------------|
E-------------------------------------------------------------------------|
Related for Forever Cold tab