Song name
# A B C D E F G H I J K L M N O P Q R S T U V W X Y Z

Waterboys - Rags tab

Some of you may know this band fronted by the Scottish Mike Scott but others may
not.  This tab is great for anyone and it's so simple! 

Tabbed by:Devon
Tuning:Standard

e|---0----------------0--------------0------------------0---0---0---2---0----|
B|-------3---2------------3---2---3-------3---2------------------------------|
G|---------------2--------------------------------2/4------------------------|
D|---------------------------------------------------------------------------|
A|---------------------------------------------------------------------------|
E|---------------------------------------------------------------------------|


e|--------0------------------------------------------------------------------|
B|---0-----------------------------------------------------------------------|
G|---------------------------------------------------------------------------|
D|---------------------------------------------------------------------------|
A|---------------------------------------------------------------------------|
E|---------------------------------------------------------------------------|

Everything is rags...
Play throughout the whole song.  I haven't worked the chords out yet but this is perfect for a solo!
Have fun!
Tap to rate this tab
 
# A B C D E F G H I J K L M N O P Q R S T U V W X Y Z