Song name
# A B C D E F G H I J K L M N O P Q R S T U V W X Y Z

Waterdown - My Hopelessness And Me tab

Band: Waterdown
Song: My Hopelessness and Me
Album: All Riot

Tuning:  sounds good in "drop C" and "drop D"

intro (x4)

|-------------------------------------------------------------------------------------------|
|-------------------------------------------------------------------------------------------|
|-------------------------------------------------------------------------------------------|
|---6~-----------9~---------4~----------11~----------6~---------9~----------4~----------6~--|
|---6~-----------9~---------4~----------11~----------6~---------9~----------4~----------6~--|
|---6~-----------9~---------4~----------11~----------6~---------9~----------4~----------6~--|


verse(x4)

|-----------------------------------------------------------------------------------------|
|-----------------------------------------------------------------------------------------|
|-----------------------------------------------------------------------------------------|
|---6--6--6--6---6----9~----4--4--4--4---4----6~----6--6--6--6----9~----4--4--4--4----6~--|
|---6--6--6--6---6----9~----4--4--4--4---4----6~----6--6--6--6----9~----4--4--4--4----6~--|
|---6--6--6--6---6----9~----4--4--4--4---4----6~----6--6--6--6----9~----4--4--4--4----6~--|
    .   .   .   .                 .   .  .   .                   .   .   .  .             .   .  .   .


|------------------------------------|
|------------------------------------|
|------------------------------------|
|---6------------8-------------------|
|---6--x8-------8--x8----------------|
|---6------------8-------------------|

chorus(x2)

|-----------------------------------------------------------------------------------|
|-----------------------------------------------------------------------------------|
|-----------------------------------------------------------------------------------|
|---6-----------9---------4----------11----------6---------9----------4----------6--|
|---6-----------9---------4----------11----------6---------9----------4----------6--|
|---6-----------9---------4----------11----------6---------9----------4----------6--|

thats all i kno for now ill get the rest soon....


http://www.waterdown.de/
Tap to rate this tab
 
# A B C D E F G H I J K L M N O P Q R S T U V W X Y Z