Song name
# A B C D E F G H I J K L M N O P Q R S T U V W X Y Z

Watermark - Captivate Us tab

*****************************************************************************

                           CAPTIVATE US - WATERMARK

*****************************************************************************

email: jonking15_@yahoo.com

CAPO IN 1(G#)

INTRO:

     Em           D             C
e|-----------|-----------|-------------|
B|--8-----8--|--7-----7--|--5-------5--|
G|----O------|----O------|----O---O----|
D|------O----|------O----|------O------|
A|--7--------|--5--------|--3----------|
E|-----------|-----------|-------------|

     Am           D             G
e|-----------|-----------|-------------|
B|--3-----3--|--1-----1--|----------3--|
G|----O------|----O------|--------O----|
D|------O----|--O---O----|------O------|
A|--O--------|-----------|----2--------|
E|-----------|-----------|--3----------|


     Em           D             C
e|-----------|-----------|-------------|
B|--8-----8--|--7-----7--|--5-------5--|
G|----O------|----O------|----O---O----|
D|------O----|------O----|------O------|
A|--7--------|--5--------|--3----------|
E|-----------|-----------|-------------|

     Am           D             G
e|-----------|-----------|----------3--|
B|--3-----3--|--1-----1--|-------------|
G|----O------|----O------|--------O----|
D|------O----|--O---O----|------O------|
A|--O--------|-----------|----2--------|
E|-----------|-----------|--3----------|

i hope you will enjoy :)(:

    GOD BLESS YOU!!! 
Tap to rate this tab
 
# A B C D E F G H I J K L M N O P Q R S T U V W X Y Z