Song name
# A B C D E F G H I J K L M N O P Q R S T U V W X Y Z

Watershed - Indigo Girl tab

Hey there. For those of you who share my opinion that chords on this song suck, heres a
a friend of mine worked out for me, which is pretty awesome. play these tabbings instead
strumming the chords. just repeat it the whole song, if the order of the chords change, 
order of the diff. tabbing parts change the same way. Have fun :)


Watershed - Indigo Girl

CAPO 1st FRET

   [--- Dadd9 -----]  [--- Em7 ---]

e-----------0------------------0------|
B-------3-----3---3--------3-----3----|
G-----2---2-----2--------0---0--------|
D---0---------------------------------|
A-------------------------------------|
E----------------------0--------------|

 [Brdge][---G6--------]  [------Asus4--------|
e-------------0------------------------------|
B---------3-----3---3------------2h3-2-------|
G-------0---0-----0----------2---2---2-2-----|
D--------------------------2---2---------2---|
A------------------------0-------------------|
E-0-2-3--------------------------------------|
Tap to rate this tab
 
# A B C D E F G H I J K L M N O P Q R S T U V W X Y Z