Song name
# A B C D E F G H I J K L M N O P Q R S T U V W X Y Z

Wau Y Los Arrrghs - Hey Monstruo Hey tab

Play it the necesary times

Tuning Db


-----------------------------------------------|
-----------------------------------------------|
-----------------------------------------------|
-----------------------------------------------|
--------------1-1-2-2-2------------------------|
-1-1-1-4-4-4-----------------------------------|

--------------------------------------------------|
--6-----------------------------------------------|
--5-5---------------------------------------------|
--3-5-6-5-----------------------------------------|
----3-6-5-----------------------------------------|
------4-3-----------------------------------------|
Tap to rate this tab
# A B C D E F G H I J K L M N O P Q R S T U V W X Y Z