Guitaretab - guitar tabs
Song name
# A B C D E F G H I J K L M N O P Q R S T U V W X Y Z

Wavves - So Bored tab

Link to Wavves: http://www.myspace.com/wavves

Tabbed by:Austin Bridges


Tuning:Standard

 

Intro:

e|------------0-----------------|
B|--------------0---------------|
G|----------------2-------------|
D|----7----------------11----12-|
A|----7----------------11----12-|
E|----5-----------------9----10-|




[ Tab from: http://www.guitaretab.com/w/wavves/181394.html ]
e|-------------------------------------------------------------|
B|-------------------------------------------------------------|
G|-------------------------------------------------------------|
D|--7---------11----------12-----------------------------------|
A|--7--x16----11--x8------12--x8-------------------------------|
E|--5----------9----------10-----------------------------------|


I'm soooo boredddddd...
e|-------------------------------------------------------------|
B|-------------------------------------------------------------|
G|-------------------------------------------------------------|
D|--7---------11---------4----------12-------------------------|
A|--7--x8-----11--x8-----4--x8------12--x8---------------------|
E|--5----------9---------2----------10-------------------------|
Related for So Bored tab