Song name
# A B C D E F G H I J K L M N O P Q R S T U V W X Y Z

Wavves - Summer Goth tab

www.myspace.com/wavves


Tabbed by:Austin Bridges



Tuning: Standard



Main Riff:
E-----------------------------------------------------------|
A-----------------------------------------------------------|
D-----------------------------------------------------------|
G---5---3---5---3---5---3---5---3-----6------5--------------|
B---5---3---5---3---5---3---5---3-----6--x3--5--x3----------|
E---3---1---3---1---3---1---3---1-----4------3--------------|


E--------------------------------------------------------------|
A--------------------------------------------------------------|
D--------------------------------------------------------------|
G---5---3---5---3---5---3---5---3-----3------6-------5---3---6-|
B---5---3---5---3---5---3---5---3-----3--x3--6--x3---5---3---6-|
E---3---1---3---1---3---1---3---1-----1------4-------3---1---4-|

Repeat.
Tap to rate this tab
# A B C D E F G H I J K L M N O P Q R S T U V W X Y Z